Guitaretab - guitar tabs
Song name
# A B C D E F G H I J K L M N O P Q R S T U V W X Y Z

Judas Priest - The Hellion tab

Band: Judas Priest
Song: The Hellion
Album: Screaming for Vengeance
Music by: Glenn Tipton, Rob Halford, and K.K. Downing
Tabbed by: Tyler W.
E-mail: Cokekilledthequeen@yahoo.com

Gtr I (E A D G B E) - 'Glenn Tipton dist electric'
Gtr II (E A D G B E) - 'K.K. Downing dist electric'
Gtr III (E A D G B E) - 'Untitled dist electric'
Gtr IV (E A D G B E) - 'Untitled dist electric'

[A]
  Q=105
 4/4
  Gtrs I, II (Two Guitars arr. for one.)
  Gtr II Can also play Rhythm parts instead.
  E5               E5               D5
||----------------|----------------|----------------|
||o---------------|----------------|---12-10--------|
||----12-11----9~~|----12-11----9~~|------------12~~|
||--9-------------|--9-------------|--9-------------|
||o---------------|----------------|----------------|
||----------------|----------------|----------------|
 C5      D5
Let Ring-|
|------------------||\
|-----------------o|| \
|------5-7----9----||  \Repeat
|----5---7------9~~||  /  4x
|--3-----5--------o|| /
|------------------||/

  Gtr III (Enters after Gtrs I, II play twice)
  E5		   E5		    D5
||---12-----------|---12-----------|----15-14----12~~~|
||o-----15----12~~|------15----12~~|------------------|
||----------------|----------------|------------------|
||----------------|----------------|------------------|
||o---------------|----------------|------------------|
||----------------|----------------|------------------|
 
 C5        D5
|-12-------22-----24~~~||\
|----12---------------o|| \
|----------------------||  \Repeat
|----------------------||  /  2x
|---------------------o|| /
|----------------------||/
[ Tab from: http://www.guitaretab.com/j/judas-priest/46801.html ]
  Gtr IV (Enters with Gtr III at the same time)
  E5		   E5	            D5
||----------------|----------------|----12------------|
||o---------------|----------------|-------15----12~~~|
||------14----12~~|------14----12~~|------------------|
||---14-----------|---14-----------|------------------|
||o---------------|----------------|------------------|
||----------------|----------------|------------------|

 C5             D5
|---------------14-----15~~~||\
|----(12)/12---------------o|| \
|---------------------------||  \Repeat
|---------------------------||  /  2x
|--------------------------o|| /
|---------------------------||/

[B]
  Q=192
 4/4
  Gtr I,II,IV (All arr. for one)
  E5
  Let Ring-----------------------------------------
||------------|----------------|----------------|
||------------|----------------|----------------|
||------------|----------------|----------------|
||-2----------|----------------|----------------|
||-2----------|----------------|----------------|
||-0----------|----------------|----------------|
               E5
-----------------|
|----------------||       
|----------------||       Segue into "Electric Eye"
|----------------||
|--------------2-||
|--------------2-||Last Note is first note to "Electric Eye"
|--------------0-||

  Gtr III
  E5                      P.H.---------------------
||------------|----------------|----------------|
||------------|----------------|----------------|
||------------|------------9~~~|~~~~~~~~~~~~~~~~|
||------------|----------------|------------8~~~|
||------------|----------------|----------------|
||------------|----------------|----------------|

------------|
|----------------||
|----------------||       Segue into "Electric Eye"
|~~~~9~~~~9~~~~~~||
|~~~~~~~~~~~~~~~~||
|----------------||              and Enjoy!
|----------------||

Notation:

9~~       = Vibrato
10/12     = Shift Slide
P.H.      = Pinch/Artificial Harmonics
Let Ring  = Let notes ring out

If the harmony sounds wrong, listen to the song and I am sure it
will sound right.

Enjoy. Any problems? PM me or E-mail me: Cokekilledthequeen@yahoo.com
Related for The Hellion tab
Advertisement will be closed in 10 seconds