Song name
# A B C D E F G H I J K L M N O P Q R S T U V W X Y Z

Judas Priest - Rock You All Around The World tab

Help us improve GuitareTab! Take a short survey!
Judas Priest 
Rock you all around the world
Turbo
Tabbed by Kevin Cruz

Standard tunning

|-14----14---14---14---14---14-17-|----21-----22---17----|
|----17b--17b--17b--17b--17b------|-18b---18b--------19~-|
|---------------------------------|----------------------|
|---------------------------------|----------------------|
|---------------------------------|----------------------|
|---------------------------------|----------------------|

   Sweep
|-----17--14h17p14h17p14h17p14h17p14h17p14--14h17p14h17p14h19-|
|---14------------------------------------17------------------|
|-14----------------------------------------------------------|
|-------------------------------------------------------------|
|-------------------------------------------------------------|
|-------------------------------------------------------------|

|-14h19p14--14h17p14h17p14--14h17p14h16p14--14-----------------------|
|---------17--------------17--------------17--17p14h17p14--14h17p14b-|
|--------------------------------------------------------16----------|
|--------------------------------------------------------------------|
|--------------------------------------------------------------------|
|--------------------------------------------------------------------|
Related for Rock You All Around The World tab