Guitaretab - guitar tabs
Song name
# A B C D E F G H I J K L M N O P Q R S T U V W X Y Z

Judas Priest - Metal Gods tab

----------------------------------------------------------------------------
                         METAL GODS by JUDAS PRIEST
----------------------------------------------------------------------------

tabbed by Halenrocker (Cory)
email-vanhalen707@yahoo.com
tuning-standard


(This is the rythm guitar to the song)


VERSE 1
E------------------------------|
B------------------------------|
G------------------------------|
D-8h9--9-9-9--12--8h9--9-9-9---|
A-6h7--7-7-7--10--6h7--7-7-7---|
E-0-0--0-0-0------0-0--0-0-0---|

E-------------------------------|
B-------------------------------|
G-------------------------------|
D-8h9--9-9-9--12--8h9--9-99-----|
A-6h7--7-7-7--10--6h7--7-77-----|Hold
E-0-0--0-0-0------0-0--0-00-----|


E------------------------------|
B------------------------------|
G------------------------------|
D-8h9--9-9-9--12--8h9--9-9-9---|
A-6h7--7-7-7--10--6h7--7-7-7---|
E-0-0--0-0-0------0-0--0-0-0---|
"We've taken too much for granted..."

E-------------------------------|
B-------------------------------|
G-------------------------------|
D-8h9--9-9-9--12--8h9--9-99-----|
A-6h7--7-7-7--10--6h7--7-77-----|Hold
E-0-0--0-0-0------0-0--0-00-----|


E------------------------------|
B------------------------------|
G------------------------------|
D-8h9--9-9-9--12--8h9--9-9-9---|
A-6h7--7-7-7--10--6h7--7-7-7---|
E-0-0--0-0-0------0-0--0-0-0---|


E-------------------------------|
B-------------------------------|
G-------------------------------|
D-8h9--9-9-9--12--8h9--9-99-----|
A-6h7--7-7-7--10--6h7--7-77-----|Hold
E-0-0--0-0-0------0-0--0-00-----|


Chourus 1
E-----------------------------------|
B-----------------------------------|
G-----------------------------------|
D---------------------------------4-|
A-2h4-444-44-2h4-444-44-2h4-444-4-2-|
E-0h2-222-22-0h2-222-22-0h2-222-2---|
       "Marching in the streets..."

E-----------------------------------|
B-----------------------------------|
G-----------------------------------|
D-----------------------------------|
A-2h4-444-44-2h4-444-44-2h4-444-4-2-|
E-0h2-222-22-0h2-222-22-0h2-222-2-0-|


E-----------------------------------|
B-----------------------------------|
G-----------------------------------|
D---------------------------------4-|
A-2h4-444-44-2h4-444-44-2h4-444-4-2-|
E-0h2-222-22-0h2-222-22-0h2-222-2---|


E-----------------------------------|
B-----------------------------------|
G-----------------------------------|
D-----------------------------------|
A-2h4-444-44-2h4-444-44-2h4-444-4-2-|
E-0h2-222-22-0h2-222-22-0h2-222-2-0-|

VERSE 2
E------------------------------|
B------------------------------|
G------------------------------|
D-8h9--9-9-9--12--8h9--9-9-9---|
A-6h7--7-7-7--10--6h7--7-7-7---|
E-0-0--0-0-0------0-0--0-0-0---|
"From off Iíve seen my perfection..."

E-------------------------------|
B-------------------------------|
G-------------------------------|
D-8h9--9-9-9--12--8h9--9-99-----|
A-6h7--7-7-7--10--6h7--7-77-----|Hold
E-0-0--0-0-0------0-0--0-00-----|


E------------------------------|
B------------------------------|
G------------------------------|
D-8h9--9-9-9--12--8h9--9-9-9---|
A-6h7--7-7-7--10--6h7--7-7-7---|
E-0-0--0-0-0------0-0--0-0-0---|


E-------------------------------|
B-------------------------------|
G-------------------------------|
D-8h9--9-9-9--12--8h9--9-99-----|
A-6h7--7-7-7--10--6h7--7-77-----|Hold
E-0-0--0-0-0------0-0--0-00-----|

Chourus 2
E-----------------------------------|
B-----------------------------------|
G-----------------------------------|
D---------------------------------4-|
A-2h4-444-44-2h4-444-44-2h4-444-4-2-|
E-0h2-222-22-0h2-222-22-0h2-222-2---|
            "Hiding underground..."

E-----------------------------------|
B-----------------------------------|
G-----------------------------------|
D-----------------------------------|
A-2h4-444-44-2h4-444-44-2h4-444-4-2-|
E-0h2-222-22-0h2-222-22-0h2-222-2-0-|


E-----------------------------------|
B-----------------------------------|
G-----------------------------------|
D---------------------------------4-|
A-2h4-444-44-2h4-444-44-2h4-444-4-2-|
E-0h2-222-22-0h2-222-22-0h2-222-2---|


E-----------------------------------|
B-----------------------------------|
G-----------------------------------|
D-----------------------------------|
A-2h4-444-44-2h4-444-44-2h4-444-4-2-|
E-0h2-222-22-0h2-222-22-0h2-222-2-0-|

E----------------------------------|
B----------------------------------|
G----------------------------------|
D----------------------------------|
A--------------------------------5-|
E---------------------------3-3-5--|
  "metal gods..."

E----------------------------------|
B----------------------------------|
G----------------------------------|
D----------------------------------|
A--------------------------------5-|
E---------------------------3-3-5--|
  "metal gods..."

GLENN SOLO
RYTHM DURING SOLO

E-----------------------------------|
B-----------------------------------|
G-----------------------------------|
D-----------------------------------|
A-2h4-444-444-444-2-2h4-444-444-444-|
E-0h2-222-222-222-0-0h2-222-222-222-|

E-----------------------------------|
B-----------------------------------|
G-----------------------------------|
D-----------------------------------|
A-2h4-444-444-444-2-2h4-444-444-444-|
E-0h2-222-222-222-0-0h2-222-222-222-|
[ Tab from: http://www.guitaretab.com/j/judas-priest/53103.html ]
E-----------------------------------|
B-----------------------------------|
G-----------------------------------|
D-----------------------------------|
A-2h4-444-444-444-2-2h4-444-444-444-|
E-0h2-222-222-222-0-0h2-222-222-222-|

E-----------------------------------|
B-----------------------------------|
G-----------------------------------|
D-----------------------------------|
A-2h4-444-444-444-2-2h4-444-444-444-|
E-0h2-222-222-222-0-0h2-222-222-222-|


E----------------------------------|
B----------------------------------|
G----------------------------------|
D----------------------------------|
A--------------------------------5-|
E---------------------------3-3-5--|
  "metal gods..."

E----------------------------------|
B----------------------------------|
G----------------------------------|
D----------------------------------|
A--------------------------------5-|
E---------------------------3-3-5--|
  "metal gods..."


VERSE 3
E------------------------------|
B------------------------------|
G------------------------------|
D-8h9--9-9-9--12--8h9--9-9-9---|
A-6h7--7-7-7--10--6h7--7-7-7---|
E-0-0--0-0-0------0-0--0-0-0---|
"Machines are taking all over..."

E-------------------------------|
B-------------------------------|
G-------------------------------|
D-8h9--9-9-9--12--8h9--9-99-----|
A-6h7--7-7-7--10--6h7--7-77-----|Hold
E-0-0--0-0-0------0-0--0-00-----|


E------------------------------|
B------------------------------|
G------------------------------|
D-8h9--9-9-9--12--8h9--9-9-9---|
A-6h7--7-7-7--10--6h7--7-7-7---|
E-0-0--0-0-0------0-0--0-0-0---|


E-------------------------------|
B-------------------------------|
G-------------------------------|
D-8h9--9-9-9--12--8h9--9-99-----|
A-6h7--7-7-7--10--6h7--7-77-----|Hold
E-0-0--0-0-0------0-0--0-00-----|

CHORUS 3
E-----------------------------------|
B-----------------------------------|
G-----------------------------------|
D---------------------------------4-|
A-2h4-444-44-2h4-444-44-2h4-444-4-2-|
E-0h2-222-22-0h2-222-22-0h2-222-2---|
          "Better be the slaves..."

E-----------------------------------|
B-----------------------------------|
G-----------------------------------|
D-----------------------------------|
A-2h4-444-44-2h4-444-44-2h4-444-4-2-|
E-0h2-222-22-0h2-222-22-0h2-222-2-0-|


E-----------------------------------|
B-----------------------------------|
G-----------------------------------|
D---------------------------------4-|
A-2h4-444-44-2h4-444-44-2h4-444-4-2-|
E-0h2-222-22-0h2-222-22-0h2-222-2---|


E-----------------------------------|
B-----------------------------------|
G-----------------------------------|
D-----------------------------------|
A-2h4-444-44-2h4-444-44-2h4-444-4-2-|
E-0h2-222-22-0h2-222-22-0h2-222-2-0-|
      --LYRICS END HERE--

E-----------------------------------|
B-----------------------------------|
G-----------------------------------|
D---------------------------------4-|
A-2h4-444-44-2h4-444-44-2h4-444-4-2-|
E-0h2-222-22-0h2-222-22-0h2-222-2---|

E-----------------------------------|
B-----------------------------------|
G-----------------------------------|
D-----------------------------------|
A-2h4-444-44-2h4-444-44-2h4-444-4-2-|
E-0h2-222-22-0h2-222-22-0h2-222-2-0-|

E-----------------------------------|
B-----------------------------------|
G-----------------------------------|
D---------------------------------4-|
A-2h4-444-44-2h4-444-44-2h4-444-4-2-|
E-0h2-222-22-0h2-222-22-0h2-222-2---|

E-----------------------------------|
B-----------------------------------|
G-----------------------------------|
D-----------------------------------|
A-2h4-444-44-2h4-444-44-2h4-444-4-2-|
E-0h2-222-22-0h2-222-22-0h2-222-2-0-|

E-----------------------------------|
B-----------------------------------|
G-----------------------------------|
D---------------------------------4-|
A-2h4-44444442h4-44444442h4-4444442-|
E-0h2-22222220h2-22222220h2-222222--|

E-----------------------------------|
B-----------------------------------|
G-----------------------------------|
D-----------------------------------|
A-2h4-44444442h4-44444442h4-4444442-|
E-0h2-22222220h2-22222220h2-2222220-|


E-----------------------------------|
B-----------------------------------|
G-----------------------------------|
D---------------------------------4-|
A-2h4-44444442h4-44444442h4-4444442-|
E-0h2-22222220h2-22222220h2-222222--|

E-----------------------------------|
B-----------------------------------|
G-----------------------------------|
D-----------------------------------|
A-2h4-44444442h4-44444442h4-4444442-|
E-0h2-22222220h2-22222220h2-2222220-|


E-----------------------------------|
B-----------------------------------|
G-----------------------------------|
D---------------------------------4-|
A-2h4-44444442h4-44444442h4-4444442-|
E-0h2-22222220h2-22222220h2-222222--|

E-----------------------------------|
B-----------------------------------|
G-----------------------------------|
D-----------------------------------|
A-2h4-44444442h4-44444442h4-4444442-|
E-0h2-22222220h2-22222220h2-2222220-|


E-----------------------------------|
B-----------------------------------|
G-----------------------------------|
D---------------------------------4-|
A-2h4-44444442h4-44444442h4-4444442-|
E-0h2-22222220h2-22222220h2-222222--|

E-----------------------------------|
B-----------------------------------|
G-----------------------------------|
D-----------------------------------|
A-2h4-44444442h4-44444442h4-4444442-|
E-0h2-22222220h2-22222220h2-2222220-|


well theres the rythm for the song. Mabye i'll tab the lead eventually.
have fun playing Metal Gods.
Related for Metal Gods tab