Song name
# A B C D E F G H I J K L M N O P Q R S T U V W X Y Z

Judas Priest - Demonizer tab

great song, check out there new cd angel of retribuition, buy it right away


6th string tuned down 1 full step

-----------------------------------|
-----------------------------------|
-----------------------------------|
-----------------------------------|
---------6--5-Rest-6-5---5---6-----|
--0--0------------------0-0--------|   2x

-----------------------------------|
-----------------------------------|
-----------------------------------|
-----------------------------------|
---------6--5-Rest-6-5---5-0--6----|
--0--0------------------0----------|   1x


------------------------------------|
------------------------------------|
------------------------------------|
------------------------------------|
----------5---------------5---------|
--0-5-3-0---3-0-5-3-0-5-0---5-3-0---|

have fun, its a hard song, but cool
cya later, Jon, if u have any probelm email at theorcs2000@yahoo.com CYA
JUDAS RULES
Tap to rate this tab
# A B C D E F G H I J K L M N O P Q R S T U V W X Y Z