Song name
# A B C D E F G H I J K L M N O P Q R S T U V W X Y Z

Judas Priest - Sad Wings tab

Orignaly, i had my friend tab this, so yeah, here you go.

Possibly A Slight Distortion
e----------------------------------------------|
B----------------------------------------------|
G----------------------------------------------|
D--2------5--------------2---5---2-----------2-|
A-------------------------------------3--------|
E----0-0----0-0-0-0-0-0----0---0---0----0-0----|


e-----------------------------|
B-----------------------------|
G-----------------------------|
D-----------------------------|
A--------------------0-3-0-2-0|
E--0-0-0-0-0-0-0-1-3----------|

Sounds Correct, if you have a better idea, feel free to correct me.
Tap to rate this tab
 
# A B C D E F G H I J K L M N O P Q R S T U V W X Y Z