Guitaretab - guitar tabs
Song name
# A B C D E F G H I J K L M N O P Q R S T U V W X Y Z

Judas Priest - Loch Ness tab

Artist: Judas Priest
Song: "Loch Ness" written by Glenn Tipton, Rob Halford & KK Downing
From the album "Angel Of Retribution" (2005)
Tabbed by Nailed Reaper (reap@front.ru)

Of course this song can't be forgotten. Priest reached their top with it... Even my mother like it!!!
I'm sorry for any errors and if you find them - mail me please

~ - vibrato
* - octaver effect (makes note an octave higher)
. - palm mute

Tune down half step

   Intro solo
eb|----12-------15----15-14----10-------|----12-------19----19-17----15-14-------|
Bb|-12-------12--------------------12---|-12-------12----------------------17----|
Gb|-------------------------------------|----------------------------------------|
Db|-------------------------------------|----------------------------------------|
Ab|-------------------------------------|----------------------------------------|
Eb|-------------------------------------|----------------------------------------|

eb|-----12------15----15-14----10-------|----12-------19-------17----22-20-19----|
Bb|-12-------12--------------------12---|-12-------12----------------------------|
Gb|-------------------------------------|----------------------------------------|
Db|-------------------------------------|----------------------------------------|
Ab|-------------------------------------|----------------------------------------|
Eb|-------------------------------------|----------------------------------------|

   Intro backing (clean)
eb|--------------------------------------------|
Bb|--------------------------------------------|
Gb|--------------------------------------------|
Db|---------------10-9-------------------------|
Ab|-7--10-9-7--7-------7--7--10-9-\12--10-9-7--|
Eb|-0----------0----------0-----------------0--|

   Riff 1
eb|-----------------------------------------|
Bb|-----------------------------------------|
Gb|-----------------------------------------|
Db|-*14~~----*14~~-0---*14~~----*14~~~~-----|
Ab|-----------------------------------------|
Eb|------0-0---------0------0-0---------3-0-|

   Riff 2
eb|----------------------------------------|
Bb|----------------------------------------|
Gb|----------------------------------------|
Db|----------------------------*14~~~~-----|
Ab|-*5~~----*5~~-*5~~--*5~~----------------|
Eb|-----0-0----------0-----0-0---------3-0-|

   Riff 3
eb|------------------------|
Bb|------------------------|
Gb|------------------------|
Db|------------------------|
Ab|-2--9-9-8-5--2--5-5-4-3-|
Eb|-0--7-7-6-3--0--3-3-2-1-|

   Riff 4 (verse)
eb|------------------------------------------|------------------------------------------|
Bb|------------------------------------------|------------------------------------------|
Gb|------------------------------------------|------------------------------------------|
Db|------------------------------------------|------------------------------------------|
Ab|-2-2-2--2-2-2--3-3-3--2-2-2--3-3-3--5--3--|-2-2-2--3-3-3--3-3-3--2-2-2--3-3-3--5--3--|
Eb|-0-0-0--0-0-0--1-1-1--0-0-0--1-1-1--3--1--|-0-0-0--1-1-1--1-1-1--0-0-0--1-1-1--3--1--|

   Riff 5
eb|------------------|
Bb|------------------|
Gb|------------------|
Db|------------------|
Ab|----------------2-|
Eb|-1-0-0--0-1-1-1---|

   Riff 6 (bridge)
eb|---------------------|---------------------|---------------------|---------------------|
Bb|---------------------|---------------------|---------------------|---------------------|
Gb|---------------------|---------------------|---------------------|---------------------|
Db|-2----4----5----7----|-2----4----5----9----|-2----4----5----7----|-9----9----9----9----|
Ab|-2----4----5----7----|-2----4----5----9----|-2----4----5----7----|-9----9----9----9----|
Eb|-0----2----3----5----|-0----2----3----7----|-0----2----3----5----|-7----7----7----7----|
[ Tab from: http://www.guitaretab.com/j/judas-priest/62509.html ]
   Riff 7 (chorus)
eb|---------------------|---------------------|---------------------|------------------|
Bb|---------------------|---------------------|---------------------|------------------|
Gb|---------------------|---------------------|---------------------|------------------|
Db|-2----2----9----9----|-9----9----2----2----|-2----2----7----7----|-2----9----2------|
Ab|-2----2----9----9----|-9----9----2----2----|-2----2----7----7----|-2----9----2------|
Eb|-0----0----7----7----|-7----7----0----0----|-0----0----5----5----|-0----7----0--3-2-|

   Riff 8
eb|---------------------------------------|-------------------------------------|
Bb|---------------------------------------|-------------------------------------|
Gb|---------------------------------------|-------------------------------------|
Db|---------------------------------------|-------------------------------------|
Ab|------------------------------------4--|----------------------------------4--|
Eb|-0--2-2--0-2-3-3--0--2-2--0-2-3-0-5-2--|-0--2-2--0-2-3-3--0--2-2--0-2-3-0-2--|
                             . . . .                                 . . . .
   Riff 9
eb|-----------------------------------------------------------------|
Bb|-----------------------------------------------------------------|
Gb|-----------------------------------------------------------------|
Db|-----------------------------------------------------------------|
Ab|-----------------------------------------------------------------|
Eb|-0-1-4-0-1-4-0-1-0-1-4-0-1-4-0-1-0-1-4-0-1-4-0-1-0-1-4-0-1-4-0-1-|
    . . . . . . .   . . . . . . .

   Riff 10 (Solo 1 backing)
eb|-----------------------------------------------------------------|
Bb|-----------------------------------------------------------------|
Gb|-----------------------------------------------------------------|
Db|-------------------------3-3-3-3---------------------------------|
Ab|-2-2-2-2-3-3-3-3-2-2-2-2-1-1-1-1-2-2-2-2-5-5-5-5-4-4-4-4-3-3-3-3-|
Eb|-0-0-0-0-1-1-1-1-0-0-0-0---------0-0-0-0-3-3-3-3-2-2-2-2-1-1-1-1-|

   Riff 11 (Solo 2 backing)
eb|-----------------------------------------------------------------|
Bb|-----------------------------------------------------------------|
Gb|-----------------------------------------------------------------|
Db|---------------7~~----------------------7~~------------9-------11|
Ab|7~~~~9~~~~9-10----10~~9~~7~~~~9~~~~9-10----10~~9~~7777-7--9999-9-|
Eb|-----------------------------------------------------------------|
                                                      ....    ....

|-----------------------------------------|
|-----------------------------------------|
|-----------------------------------------|
|------7~~------------------7~~-----------|
|-9-10----10~~9~~10~~~~9~~~~---10~~9~~~~~~|
|-----------------------------------------|

   Interlude solo 1
eb|----12-------15----15-14----10-------|----12-------15----15-14----15-14-12----|
Bb|-12-------12-------------------12----|-12-------12----------------------------|
Gb|-------------------------------------|----------------------------------------|
Db|-------------------------------------|----------------------------------------|
Ab|-------------------------------------|----------------------------------------|
Eb|-------------------------------------|----------------------------------------|
   Interlude solo 2
eb|-----12------15----15-14----10-------|----12-------19----19-17----22-20-19----|
Bb|-12-------12-------------------12----|-12-------12----------------------------|
Gb|-------------------------------------|----------------------------------------|
Db|-------------------------------------|----------------------------------------|
Ab|-------------------------------------|----------------------------------------|
Eb|-------------------------------------|----------------------------------------|

	SONG STRUCTURE
Intro backing (x4) + Intro solo
Riff 1 (x2)
Riff 2 (x2)
Riff 3 (x4)
Riff 4 (x3)
Riff 5 (x2)
Riff 4 (x2)
Riff 5 (x2)
Riff 6
Riff 7
Riff 3 (x2)
Riff 4 (x2)
Riff 5 (x2)
Riff 6
Riff 7
Riff 3
Riff 8
Riff 9
Riff 10 (x6 - first 2 times all notes are palm muted) + Solo 1
Riff 11 + Solo 2
Riff 3 (x2)
Riff 2 (x2)
Intro backing (x3 - starts after first part of solo) + Interlude solo 1 (x2)
Intro backing (x3) + Interlude solo 2 (x2 - on the 2nd time play only first part)
Riff 6
Riff 7
Riff 3 (x2)
Riff 2 (many many many many times 'til fading out)

Well, now we know how Loch Ness Monster looks!!! Enjoy it!!!
Related for Loch Ness tab
Advertisement will be closed in 10 seconds