Song name
# A B C D E F G H I J K L M N O P Q R S T U V W X Y Z

Judas Priest - Last Rose Of Summer tab

Intro [A]:

(0:00 - 0:17)

|---------------------------------------------------------------------|
|----------------------------------------4s8--8h10p8---7h9p7----------|
|---------------5------------3-----5-4-3-------------9-------7--------|
|------2------4---3s5-7--3-5---5-3-----------------------------5h7p5--|
|--3h5----3h5---------------------------------------------------------|
|---------------------------------------------------------------------|

------------------------0---|
------------------(1)-x-1---|
----5----------7--(2)-x-2---|
5h7---7s9h11p9----(2)-x-2---|
----------------------x-----|
----------------------------|

Solo After Chorus 1 [D]:

(1:20 - 1:36)

|-17^^^^-18p15-----------------17------------------------------------------|
|--------------17-15--16-18-19----20-16--17-------------16-----------------|
|-------------------------------------------15-17-15-17----17--15----------|
|-----------------------------------------------------------------17--(15)-|
|--------------------------------------------------------------------------|
|--------------------------------------------------------------------------|

Solo After Chorus 2 [E]:

(2:39 - 2:55)

|-19^^^^^-20p17-----------------18------------------------------------------|
|---------------19-17--17-19-20----21-17--18-------------17----19-----------|
|--------------------------------------------16-18-16-18----17----17--------|
|--------------------------------------------------------------------14-12^^|
|---------------------------------------------------------------------------|
|---------------------------------------------------------------------------|

That is all for now, any corrections/additions are appreciated. There does not appear to 
another tablature version of this anywhere.
Tap to rate this tab
 
# A B C D E F G H I J K L M N O P Q R S T U V W X Y Z