Guitaretab - guitar tabs
Song name
# A B C D E F G H I J K L M N O P Q R S T U V W X Y Z

Judas Priest - Dreamer Deceiver tab

"Dreamer Deceiver", by Judas Priest from "Sad Wings of Destiny" 1976


	This is just the intro. For reference, I saw the Electric Eye DVD, and saw Glen Tipton
this song on an E5 played with open strings. The rest I tabbed completely by ear. I've
this song for 20+ years. Play steadily and calmly with downstrokes and a few 
beautiful and haunting....total classic Priest!....enjoy.

0:00 - 1:00

Opening:
                             -let last note ring
e|-----------------------0---------------------------------|
B|-----------------0---------------------------------------|
G|--------------0------------------------------------------|
D|-----------9---------------------------------------------|
A|--------7------------------------------------------------|
E|-----0---------------------------------------------------|

e|-----------------------0-----|----------------0----------|--------------------------------|----------------0----|
B|-------------------0---------|--------------0----0---0---|-------------0--------------0---|---------------------|
G|---------------0-------------|------------0--------0-----|----------0--------------0------|----------0----------|
D|-----------------------------|---------7-----------------|-------5--------------4---------|-------9-------------|
A|------------7----7-----------|------5--------------------|----3--------------2------------|----7----------------|
E|---------0-------------------|---------------------------|--------------------------------|--0------------------|

       Standing             by my     window                   breathing       summer
     breeze
[ Tab from: http://www.guitaretab.com/j/judas-priest/90748.html ]
e|-----------------------0-----|---------------0-----------|-----------------------------------------------0--------|
B|-------------------0-----0---|-------------0----0---0----|------------0--------------0----------------------------|
G|---------------0-----------0-|-----------0--------0------|---------0--------------0-----------------0-------------|
D|-----------------------------|--------7------------------|------5--------------4-----------------9----------------|
A|------------7----7-----------|-----5---------------------|---3--------------2-----------------7-------------------|
E|---------0-------------------|---------------------------|---------------------------------0----------------------|

	         Saw        a figure         floating             'neath    the   willow
    trees

e|------------------|-------------|-------------------0--------|
B|--------------0---|-------------|--------------0-------0-----|
G|-----------0------|-----------0-|-----------0-------------0--|
D|--------7---------|--------0----|--------9-------------------|
A|-----5------------|-----5-------|-----7----------------------|
E|------------------|--3----------|--0-------------------------|

      Asked us if   we were          happy

e|------------------|--------------|--------------0------------|
B|--------------0---|--------------|---------------------------|
G|-----------0------|-----------0--|-----------0---------------|
D|--------7---------|--------0-----|--------9------------------|
A|-----5------------|-----5--------|-----7---------------------|
E|------------------|--3-----------|--0------------------------|

				We said we       didn't        know

                                                                                 -1:00
e|------------------|--------------|--------------|------------------0-------------------|
B|--------------0---|--------------|-----------1--|---------------0-----0----------------|
G|-----------0------|----------0---|--------2-----|------------0------------0------------|
D|--------7---------|-------0------|-----2--------|---------4----------------------------|
A|-----5------------|----5---------|--0-----------|------2-------------------------------|
E|------------------|--3-----------|--------------|---0----------------------------------|

      Took us         by the         hands and       up we go
Related for Dreamer Deceiver tab
Dreamer Deceiver chords by Judas Priest