Guitaretab - guitar tabs
Song name
# A B C D E F G H I J K L M N O P Q R S T U V W X Y Z

Judas Priest - Hot Rockin tab

Hot Rockin'
by
JUDAS PRIEST

Tabbed By Dogman
http://www.myspace.com/dogbiscuit

Legend:
h  = hammer-on
p  = pull-off
r  = release
.  = Palm Mute
/  = slide up
\  = slide down
b  = bend
v  = vibrato
*  = pinch harmonic
>  = Use previous instruction for continued notes
!  = pitch shift
^  = bend up 1/2 step
+  = hold note
() = Ghost Note

Standard Tuning EADGBE

-----------------------------------

4/4 Time

INTRO
Moderately Fast Rock =152
E|------------------------|
B|------------------------|
G|------------------------|
D|------------------------|
A|--7--7----7--7----7--5--|
E|--5--5----5--5----5--3--|

~~~~Gtrs. 1 & 2 play INTRO~~~~

RIFF A
Faster =168
E|-----------------------------------------|-------------------------------------------|
B|-----------------------------------------|-------------------------------------------|
G|-----------------------------------------|-------------------------------------------|
D|--0h2-----2--------2--------2--------5-5-|-------------------------------------2--2--|
A|--0----0--0--0--0--0--0--0--0--0--0--3-3-|--5-------5--------5--------5--------0--0--|
E|-----------------------------------------|--0h3--3--3--3--3--3--3--3--3--3--0--------|
         .     .  .     .  .     .  .             .     .  .     .  .     .  .
								On last open A power chord,
								Gtr 2 slides down from 12th fret.
~~~~Gtr 1 Plays Riff A~~~~

~~~~Gtrs 1 & 2 Play Riff A x4 times~~~~

CHORUS
E|---------------------------------------------------|
B|--6-----3----6-----8----6-----3---------6----6--8--|
G|--5-----2----5-----7----5-----2---------5----5--7--|
D|-----0----------0----------0---------0-------------|
A|---------------------------------------------------|
E|---------------------------------------------------|
       .          .          .

~~~~Gtrs 1 & 2 Play CHORUS x2 times~~~~

~~~~Gtrs 1 & 2 Play Riff A x4 times~~~~

~~~~Gtrs 1 & 2 Play CHORUS x2 times~~~~

RIFF B
E|-------------------------------------------|-------------------------------------------|
B|-------------------------------------------|-------------------------------------------|
G|-------------------------------------------|-------------------------------------------|
D|--2h4-----4--------4--------4--------7--7--|--0h2-----2--------2--------2--------4--4--|
A|--2----2--2--2--2--2--2--2--2--2--0--5--5--|--0----0--0--0--0--0--0--0--0--0--0--2--2--|
E|-------------------------------------------|-------------------------------------------|
         .     .  .     .  .     .                   .     .  .     .  .     .  .

SOLO A
E|-------------7------------7-----10--9---------------------------------|
B|----------------7--10b11-----7---------7---------------------7--7-----|
G|--9b10b9v---------------------------------7--9--7--7------------------|
D|------------------------------------------------------7--9v-----------|
A|----------------------------------------------------------------------|
E|----------------------------------------------------------------------|
    *                                 *>>>>>>>>>>>>>>>>>>>>>>>>>>>>>>
!!=A#                                G# D# F# G# F# F# C# D#


E|--------10--7v-------------7------------7-----10--9--7--------------------|
B|--9b10------------7-----------7--9b10v-----7------------10--9--7----------|
G|---------------------9b^------------------------------------------9--7\---|
D|--------------------------------------------------------------------------|
A|--------------------------------------------------------------------------|
E|--------------------------------------------------------------------------|
    *>>>>>>>>>>>>               *>>>>>>>        *         *
!!= E F#  F#  D#                   C# D#        F#        F#


E|---------------------|
B|---------------------|
G|---------------------|
D|--4--2---------------|
A|--------5--4--2v-----|
E|---------------------|
    *>>>>>>>>>>>>>>>>
!!=C#  D  A  G# F#
[ Tab from: http://www.guitaretab.com/j/judas-priest/9518.html ]
SOLO B
E|----------------------------------------------|
B|----------------------------------------------|
G|--------------------------------------9b^b9---|
D|--9--7--9--9--7--9p7--9p7--9--9p7--9----------|
A|----------------------------------------------|
E|----------------------------------------------|
    *     *>>>     *    *    *>>>    *

E|----------------------------------------------------------7------------7------------7--|
B|-------------------------------------------------------7-----10b11--0--7--10b11--0--7--|
G|--7----------7--------------------------------------7----------------------------------|
D|-----9p7--------9p7-----7--------------------------------------------------------------|
A|----------9----------9-----9--7b^b7----------------------------------------------------|
E|-----------------------------------10--7b8b7b8b7---------------------------------------|


E|---------------------------------0--7--9b^b9--7-----------------------------------------|
B|--10b11--10b11--10b11--10b11b10--0--7-------------7-------------------------------------|
G|-----------------------------------------------------7----------------------------------|
D|--------------------------------------------------------11--9-----11b^b11--9--8--9v-----|
A|---------------------------------------------------------------9------------------------|
E|----------------------------------------------------------------------------------------|
    *>>>>>>>>>>>>>>>>>>                                             *>>>>>>>>>>>>>>>>>
!!=                                                                 E# F# E# D# Cx F#

~~~~Gtr 1 plays Solo A over Gtr 2's Riff B~~~~

~~~~Gtr 2 plays solo B over Gtr 1's Riff B~~~~

INTERLUDE
E|-----------------------------------------------------------------------------------------------------|
B|-----------------------------------------------------------------------------------------------------|
G|-----------------------------------------------------------------------------------------------------|
D|--------------------------5--------7-----5--------------------------------5--------7-----5-----------|
A|--------------------------5--------7-----5--------------------------------5--------7-----5-----------|
E|--0--0--0--0--0--0--0--0-----0--0-----0-----0--0--0--0--0--0--0--0--0--0-----0--0-----0-----0--0-----|
    .>>>>>>>>>>>>>>>>>>>>>     .  .     .     .>>>>>>>>>>>>>>>>>>>>>>>>>>>     .  .     .    .  .

~~~~Gtrs 1 & 2 play Interlude x3 times. On last time, end on A7 power chord.~~~~

BRIDGE
E|-------------|-----------------|----------------|-----------------|
B|-------------|-----------------|----------------|-----------------|
G|--(9)--------|--------------7--|----------------|--------------5--|
D|--(9)--------|--------------7--|----------------|--------------5--|
A|--(7)--------|--------------5--|----------------|--------------3--|
E|-------------|-----------------|----------------|-----------------|

E|-------------------|----------------|------------------|
B|-------------------|----------------|------------------|
G|--(5)--------------|----------------|--4---------------|
D|--(5)--------------|----------------|--4---------------|
A|--(3)--------------|----------------|--2---------------|
E|-------------------|----------------|------------------|

~~~~Gtrs 1 & 2 play Bridge~~~~

~~~~Gtrs 1 & 2 play Riff A x4 times~~~~

~~~~Gtrs 1 & 2 play Chorus x2 times~~~~

~~~~Gtrs 1 & 2 play Riff A x1.5 times~~~~

####LYRICS####

I've done my share of workin' out
I wanna go some place where I can scream and shout
Show me the lights, where I can find
The only thing I need to give me peace of mind

I wanna go, I wanna go, I wanna go Hot Rockin'

Where is the spark that kicks the air
Where is the energy that charges everywhere
I see the crowd, I hear the roar
I feel my body to leave the ground and soar

I wanna go, I wanna go, I wanna go Hot Rockin'

I'm goin' out in search of the bright lights
Somehow I feel that tonight is the right night
I'm almost there I've got the vibration
It's coming strong from this generation
My blood is hot, from now on I'm set free
My pulse is hot, so don't try to stop me
Cause this is it and I'm Hot Rockin'

Don't let it stop, don't let it end
Please let it carry on and on and on again
I get so high. Knocked off my feet yeah
This is the only way I want, I want, I want

I wanna go, I wanna go, I wanna go Hot Rockin'

It's all I want, it's all I crave
I just want to go Hot Rockin'
Related for Hot Rockin tab
Hot Rockin chords by Judas Priest