Song name
# A B C D E F G H I J K L M N O P Q R S T U V W X Y Z

Jude Michael - Mula Sa Puso tab

Sunday, March 20, 2011, 10:18 PM
Kamusta mga tol, bale mali kasi yung nakita kong chords dito, kaya, inimprove ko 
lang ung gawa nya. Nilagyan ko na rin ng tabs ung intro saka solo. Kung may mali 
mag comment na lang kayo dun sa baba. Pero sigurado ako tama ito. Haha.
Sorry kung wala ung riffs, t** finals kaya naming bukas, inatupag ko pa to. ---TwinkleIM
Sa mga may violent reaction, message kayo sa blog ko, tensaiproject.tumblr.com

Legend:
h-hammer on
p-pull off
/-slide
Tuning: standard (obvious ba)  -  drop d niyo kung gusto nyo. XD

Intro
e|--------------------------------------------------------|
B|--12h13p12—10-8-10-8---8h10p8---------------------------|
G|-------------------------------10-9-10/12/10------------|
D|--------------------------------------------------------|
A|--------------------------------------------------------|
E|--------------------------------------------------------|

e|-------------------------------------------------|
B|---------------------------------------------8---|
G|--9-9--—9h10p9—10/12------10-9-7--------7-9------|
D|---------------------------------7-9-10----------|
A|-------------------------------------------------|
E|-------------------------------------------------|

C
Bakit nga ba ang puso 
G
Pag nagmamahal na 
F                   G
Ay sadyang nakapagtataka 
C
Ang bawa't sandali 
G
Lagi nang may ngiti 
F                  G
Dahil langit ang nadarama

Gm                            A
Para bang ang lahat ay walang hangganan 
Dm                          F
Dahil sa tamis na nararanasan 
C                   G                               F
Kung mula sa puso ay tunay ngang ganyan


Solo:
e|----------------------------------------------------------|
b|-------------------------------------5-6-6-5-5-3-----5----|
g|-------5-5-5h7-5-----------7-7-7--7--------------5----/7--|
D|-5-5-5-------------5-5-5----------------------------------|
A|----------------------------------------------------------|
E|----------------------------------------------------------|


e|---------10---------------------------------------------|
b|--(1)---9------9---------------------15-----------------|
g|-----------------10-11—11/13---13-----13--11-10-10/12---|
D|--------------------------------------------------------|
A|--(3)---------------------------------------------------|
E|--------------------------------------------------------|

E|--------------------------------------------------------|
A|--------------------------------------------------------|
G|--------------------------------------------------------|
D|--10-10-10-12---14-14-12--------------------------------|
A|--------------------------------------------------------|
E|--------------------------------------------------------|


C                          G
Nais ko'y ikaw ang laging yakap-yakap 
F                        G
Yakap na sana'y walang wakas 
C                         G
Sana'y laging ako ang iniisip mo 
F                            G
Sa maghapon at sa magdamag


Gm                      A
Init ng pag-ibig ating pagsaluhan 
Dm
Kung mayroong hahadlang 
F
'Di ko papayagan 
C                   G                              F
Kung mula sa puso ay tunay ngang ganyan

Gm                      Am
Init ng pag-ibig ating pagsaluhan 
F
Kung mayroong hahadlang 
G
Aking paglalaban 
C                   G                              F
Kung mula sa puso ay tunay ngang ganyan


D                            A
Nais ko'y ikaw ang laging yakap-yakap 
G                                          A
Yakap na sana'y walang wakas 
D                                A
Sana'y laging ako ang iniisip mo 

G                                   A
Sa maghapon at sa magdamag

Am                                B
Init ng pag-ibig ating pagsaluhan 
Em
Kung mayroong hahadlang 
G
Aking paglalaban 
D                   A                     Bm      E(BREAK)        
Kung mula sa puso ay tunay ngang ganyan……………whooaaa


D                  A                               G - D
Kung mula sa puso ay tunay ngang ganyan

Ayan, halatang halata na in love ako ngayon. Haha. 
Tap to rate this tab
 
# A B C D E F G H I J K L M N O P Q R S T U V W X Y Z