Song name
# A B C D E F G H I J K L M N O P Q R S T U V W X Y Z

Jude - One Day Soon tab

Intro: guitar 1
e|---------------------|
B|---------------------|
G|-444xx444xx4x--------|
D|-xxxxxxxxxxxx--------|
A|-222xx222xx2x--------|
E|---------------------|

verse
e|------------------------------|
B|------------------------------|
G|-6-6-6---4-4-4--2-2-2---------|
D|-7-7-7---4-4-4--2-2-2--0-0-0--|(x2)
A|-4-4-4---2-2-2--0-0-0--0-0-0--|
D|-----------------------0-0-0--|

chorus
e|----------------------------------|
B|----------------------------------|
G|----------------------------------|
D|--5-5-5--4-4-4--0-0-0--3-3-3------|(x2)
A|--5-5-5--4-4-4--0-0-0--3-3-3------|
D|--5-5-5--4-4-4--0-0-0--3-3-3------|
Tap to rate this tab
# A B C D E F G H I J K L M N O P Q R S T U V W X Y Z