Song name
# A B C D E F G H I J K L M N O P Q R S T U V W X Y Z

Judee Sill - The Kiss tab

Highlighted       Show chord diagrams
-------------------------------------------------------------------------------
			     THE KISS - Judee Sill
-------------------------------------------------------------------------------
http://www.myspace.com/judeesill79

Tabbed by: Dev Chopra

The middle 8 proved a tricky beast to tame. I think it's OK though. Had to
work some of it out on piano and the middle 8 chords don't translate as well
to a guitar with standard tuning. It's a fantastic song though, so I hope
you enjoy playing it.

Tuning: Standard

INTRO: 

      Bdim/C     C   C/B
e|------x--------0----0-------------------|
B|------3--------1----1-------------------|
G|------4--------0----0-------------------|
D|------3--------2----2-------------------|
A|------3--------3----2-------------------|
E|------x--------x----x-------------------|
           

VERSE 1:

    Am         Am7/G 
e|---0-----------0------------------------|
B|---1-----------1------------------------|
G|---2-----------2------------------------|
D|---2-----------2------------------------|
A|---0-----------0------------------------|
E|---x-----------3------------------------|
    
    Love, risin' from the mists


   Am6/F  
e|---0------------------------------------|
B|---1------------------------------------|
G|---2------------------------------------|
D|---2------------------------------------|
A|---0------------------------------------|
E|---1------------------------------------|

     Promise me this and only this
     
      
               C/G
e|--------------0-------------------------|
B|--------------1-------------------------|
G|--------------0-------------------------|
D|--------------2-------------------------|
A|--------------3-------------------------|
E|--------------3-------------------------|

     Holy breath touchin' me
       

           G    
e|---------3------------------------------|
B|---------3------------------------------|
G|---------0------------------------------|
D|---------0------------------------------|
A|---------2------------------------------|
E|---------3------------------------------|
     
     Like a wind song


   Bdim/C                 C   C/B
e|---x--------------------0----0----------|
B|---3--------------------1----1----------|
G|---4--------------------0----0----------|
D|---3--------------------2----2----------|
A|---3--------------------3----2----------|
E|---x--------------------x----x----------|
     
     Sweet communion of a kiss


VERSE 2: As verse 1 except last line

     Sun, siftin' thru the grey
     Enter in, reach me with a ray
     Silently swoopin' down
     Just to show me      

   Bdim/C                    C   C/Bb
e|---x-----------------------0----0----------|
B|---3-----------------------1----1----------|
G|---4-----------------------0----0----------|
D|---3-----------------------2----2----------|
A|---3-----------------------3----1----------|
E|---x-----------------------x----x----------|
     
     How to give my heart away


MIDDLE 8:

        Ab
e|-------4-----------------------------------|
B|-------4-----------------------------------|
G|-------5-----------------------------------|
D|-------6-----------------------------------|
A|-------6-----------------------------------|
E|-------4-----------------------------------|

     And once a crystal choir


                        Eb/G         Eb/F       Eb 
e|------------------------x------------x---------6--|
B|------------------------x------------x---------8--|
G|------------------------3------------3---------8--|
D|------------------------1------------1---------8--|
A|------------------------1------------1---------6--|
E|------------------------3------------1---------x--|

     Appeared while I was sleepin' and called my name


       Eb/G       Ab        Gm  Bb/F
e|-------x---------4---------3---1-----------|
B|-------x---------4---------3---3-----------|
G|-------3---------5---------3---3-----------|
D|-------1---------6---------5---3-----------|
A|-------1---------6---------5---1-----------|
E|-------3---------4---------3---1-----------|

     And when they came down nearer


             C/G      Am   C/G  
e|------------0--------0----0----------------|
B|------------1--------1----1----------------|
G|------------0--------2----0----------------|
D|------------2--------2----2----------------|
A|------------3--------0----3----------------|
E|------------3-------------3----------------|
     
     Sayin', "Dyin' is done",

     C/F   C/G          Am C/G
e|----0-----0------------0--0----------------|
B|----1-----1------------1--1----------------|
G|----0-----0------------2--0----------------|
D|----2-----2------------2--2----------------|
A|----x-----3------------0--3----------------|
E|----1-----3---------------3----------------|

     Then a new song was sung

    Am/Gb C/G           G           C
e|---0-----0------------3-----------0--------|
B|---1-----1------------3-----------1--------|
G|---2-----0------------0-----------0--------|
D|---2-----2------------0-----------2--------|
A|---0-----3------------2-----------3--------|
E|---2-----3------------3--------------------|

     Until somewhere we breathed as one

   C5/D C5/E   C5/F       C5/G
e|--x----x-------x----------x----------------|
B|--1----1-------1----------1----------------|
G|--0----0-------0----------0----------------|
D|--0----x-------x----------x----------------|
A|--x----x-------x----------x----------------|
E|--x----0-------1----------3----------------|

     And still I hear their whisper

VERSE 3:
Stars, burstin' in the sky
Hear the sad nova's dyin' cry
Shimmerin' memory
Come and hold me
While you show me how to fly

VERSE 4:
Sun, siftin' thru the grey
Enter in, reach me with a ray
Silently swoopin' down
Just to show me
How to give my heart away

MIDDLE 8:
And lately sparklin' hosts
Come fill my dreams descendin' on firey beams
I've seen 'em come clear down
Where our poor bodies lay
Soothe us gently and say,
"Gonna wipe all your tears away" And still I hear their whisper

VERSE 5:
Love risin' from the mists
Promise me this and only this
Holy breath touchin' me
Like a wind song
Sweet communion of a kiss...


===============================================================================
Tap to rate this tab
# A B C D E F G H I J K L M N O P Q R S T U V W X Y Z