Song name
# A B C D E F G H I J K L M N O P Q R S T U V W X Y Z

Judge - New York Crew tab

KEY
*:RING OUT
P:PALM MUTED


Intro (Bass x2)

Guitar comes in on 2nd measure at the end with this, just follow the bass
E|--------------------|
B|--------------------|
G|--10-9-7------------|
D|--10-9-7------------|
A|--8--7-5------------|
E|--------------------|

Verse x4
E|---------------------------------------------------------------------------|
B|---------------------------------------------------------------------------|
G|-----------7-7-7-7-----------10-9------------------------------------------|
D|--2-2-2-2--7-7-7-7--2-2-2-2--10-9------------------------------------------|
A|--2-2-2-2--5-5-5-5--2-2-2-2--8--7------------------------------------------|
E|--0-0-0-0-----------0-0-0-0------------------------------------------------|
    P P P P           P P P P
Chorus x1
E|---------------------------------------------------------------------------|
B|---------------------------------------------------------------------------|
G|--7-7-7-7-7-7-7-7--5-4-4-4-4-4-4-5-4-4-4-4-4-4-2-5-------------------------|
D|--7-7-7-7-7-7-7-7--5-4-4-4-4-4-4-5-4-4-4-4-4-4-2-5-------------------------|
A|--5-5-5-5-5-5-5-5--3-2-2-2-2-2-2-3-2-2-2-2-2-2-0-3-------------------------|
E|---------------------------------------------------------------------------|

Verse  x4
E|---------------------------------------------------------------------------|
B|---------------------------------------------------------------------------|
G|-----------7-7-7-7-----------10-9------------------------------------------|
D|--2-2-2-2--7-7-7-7--2-2-2-2--10-9------------------------------------------|
A|--2-2-2-2--5-5-5-5--2-2-2-2--8--7------------------------------------------|
E|--0-0-0-0-----------0-0-0-0------------------------------------------------|
    P P P P           P P P P

Chorus 2 x1
E|---------------------------------------------------------------------------|
B|---------------------------------------------------------------------------|
G|--7-7-7-7-7-7-7-7--5-4-4-4-4-4-4-5-4-4-4-4-4-4-2-5-5-5-5-5-5---------------|
D|--7-7-7-7-7-7-7-7--5-4-4-4-4-4-4-5-4-4-4-4-4-4-2-5-5-5-5-5-5---------------|
A|--5-5-5-5-5-5-5-5--3-2-2-2-2-2-2-3-2-2-2-2-2-2-0-3-3-3-3-3-3---------------|
E|---------------------------------------------------------------------------|

E|---------------------------------------------------------------------------|
B|---------------------------------------------------------------------------|
G|--7-7-7-7-7-7-7-7--5-4-4-4-4-4-4-5-4-4-4-4-4-4-2-5-------------------------|
D|--7-7-7-7-7-7-7-7--5-4-4-4-4-4-4-5-4-4-4-4-4-4-2-5-------------------------|
A|--5-5-5-5-5-5-5-5--3-2-2-2-2-2-2-3-2-2-2-2-2-2-0-3-------------------------|
E|---------------------------------------------------------------------------|

Intro (Bass x2)


Chorus x1
E|---------------------------------------------------------------------------|
B|---------------------------------------------------------------------------|
G|--7-7-7-7-7-7-7-7--5-4-4-4-4-4-4-5-4-4-4-4-4-4-2-5-------------------------|
D|--7-7-7-7-7-7-7-7--5-4-4-4-4-4-4-5-4-4-4-4-4-4-2-5-------------------------|
A|--5-5-5-5-5-5-5-5--3-2-2-2-2-2-2-3-2-2-2-2-2-2-0-3-------------------------|
E|---------------------------------------------------------------------------|

Interlude x2

Just Hit Them
E|---------------------------------------------------------------------------|
B|---------------------------------------------------------------------------|
G|--9-9-9-9--7-7-7-7--5-5-5-5--2-2-2-2---------------------------------------|
D|--9-9-9-9--7-7-7-7--5-5-5-5--2-2-2-2---------------------------------------|
A|--7-7-7-7--5-5-5-5--3-3-3-3--0-0-0-0---------------------------------------|
E|---------------------------------------------------------------------------|

Outro x6
The first 2 measures are played open, then the last two are palm muted, then the last 2 
played like the first time.
*:RING OUT
E|------------------------------------------------|
B|------------------------------------------------|
G|--2----4/5---9---10-10-10-9-9-9-----------------|
D|--2----4/5---9---10-10-10-9-9-9-----------------|x6
A|--0*---2/3*--7*--8--8--8--7-7-7-----------------|
E|------------------------------------------------|
Tap to rate this tab
 
# A B C D E F G H I J K L M N O P Q R S T U V W X Y Z