Song name
# A B C D E F G H I J K L M N O P Q R S T U V W X Y Z

Judge - Fed Up tab

e|----------|
b|----------|
G|----------|
D|-6-5-4-2--|
A|-6-5-4-2--|
E|-4-3-2-0--|

e|----------------------------------------|
b|----------------------------------------|
G|--------999-777-999-----55-444444444444-|
D|-6-5-4--999-777-999-55--55-444444444444-| x4
A|-6-5-4--777-555-777-55--33-222222222222-|
E|-4-3-2--------------33------------------|

e|-------------------------------|
b|-------------------------------|
G|-777777-555-999-777777-9999999-|
D|-777777-555-999-777777-9999999-| x2
A|-555555-333-777-555555-7777777-|
E|-------------------------------|

e|--------------|
b|--------------|
G|--------------|
D|-2------------|
A|-2------------|
E|-0------------|

e|----------------------------------------|
b|----------------------------------------|
G|--------999-777-999-----55-444444444444-|
D|-6-5-4--999-777-999-55--55-444444444444-| x4
A|-6-5-4--777-555-777-55--33-222222222222-|
E|-4-3-2--------------33------------------|

e|-------------------------------|
b|-------------------------------|
G|-777777-555-999-777777-9999999-|
D|-777777-555-999-777777-9999999-| x2
A|-555555-333-777-555555-7777777-|
E|-------------------------------|

e|--------------|
b|--------------|
G|--------------|
D|-2------------|
A|-2------------|
E|-0------------|

-------------------------------

e|----------------------------|
b|----------------------------|
G|----------------------------|
D|-2------2------2------3-3-3-| x2
A|-2-2222-2-2222-2-2222-3-3-3-|
E|-0-0000-0-0000-0-0000-1-1-1-|
     PMPM   PMPM   PMPM

e|-----------------------------|
b|-----------------------------|
G|-----------------------------|
D|-5------6------5-------8-8-8-| x2
A|-5-5555-6-6666-5-5555--8-8-8-|
E|-3-3333-4-4444-3-3333--6-6-6-|
     PMPM   PMPM   PMPM 

play whole section x2
-----------------------------------------

e|----------------|
b|----------------|
G|----------------|
D|-2--------3-3-3-| x4
A|-2--------3-3-3-|
E|-0--------1-1-1-|

e|----------------|
b|----------------|
G|----------------|
D|-2--------------| 
A|-2--------------|
E|-0--------------|

END
Tap to rate this tab
 
# A B C D E F G H I J K L M N O P Q R S T U V W X Y Z