Song name
# A B C D E F G H I J K L M N O P Q R S T U V W X Y Z

Judy Garland - Somewhere Over The Rainbow tab

judy Garland - Somewhere Over The Rainbow
Normal Tuning (eBGDAE)


e |--20---19-15-17-19-20---17-15-----13--12-----------------------------|
B |13-------------------13------------------13-15-17-18-15-12-13-15-17-13
G |-----------------------------10-12-----------------------------------|
D |---------------------------------------------------------------------|
A |---------------------------------------------------------------------|
E |---------------------------------------------------------------------|

e |--12-15-12-15-12-15-12-15----15-13-15-13-15-13-15-13--15-17-17----|
B |------------------------------------------------------------------|
G |------------------------------------------------------------------|
D |------------------------------------------------------------------|
A |------------------------------------------------------------------|
E |------------------------------------------------------------------|


e |--12-15-12-15-12-15-12-15----15-13-15-13-15-13-15-13--15-17-17----|
B |------------------------------------------------------------------|
G |------------------------------------------------------------------|
D |------------------------------------------------------------------|
A |------------------------------------------------------------------|
E |------------------------------------------------------------------|


e |--20---19-15-17-19-20---17-15-----13--12-----------------------------|
B |13-------------------13------------------13-15-17-18-15-12-13-15-17-13
G |-----------------------------10-12-----------------------------------|
D |---------------------------------------------------------------------|
A |---------------------------------------------------------------------|
E |---------------------------------------------------------------------|


tom.barbe@hotmail.com
Tap to rate this tab
 
# A B C D E F G H I J K L M N O P Q R S T U V W X Y Z