Song name
# A B C D E F G H I J K L M N O P Q R S T U V W X Y Z

Jugheads Revenge - Outro Elimination tab

t. See http://www.olga.net/faq/ for more information.                     #
#-----------------------------------------------------------------------------#

Date: Mon, 6 Mar 2000 16:29:18 -0500
From: "Steve Mallien" 
Subject: j/jugheads_revenge/outro_elimination.tab

------------------------------------------------------------
        Jughead's Revenge - Outro from Elimination
------------------------------------------------------------

  Intro

A|-------------|
E|----0---0----|


  Riff 1a

e|-------------------------------|
B|-------------------------------|
G|-------------------------------|
D|---2-2---2-2-2-----------------|
A|---------------2-2-3-3-2-2-----|
E|-0-------------------------3-3-|


  Riff 1b

e|-------------------------------|
B|-------------------------------|
G|---2-2---2-2-2-----------------|
D|---------------2-2-3-3-2-2-----|
A|-0-------------------------3-3-|
E|-------------------------------|


  Riff 2

e|--------------------------------------------------------------|
B|--------------------------------------------------------------|
G|--------------------------------------------------------------|
D|------------------------3-2---2---2---2-2-2-2-2-2-2-2-2-2-2---|
A|-0--0--0-2-3---2--3-3-3---------------------------------------|
E|--------------------------------------------------------------|

e|--------------------------------------------------------------|
B|--------------------------------------------------------------|
G|--------------------------------------------------------------|
D|----------------------2-0-------------------------------------|
A|-0--0--0-2-3---2--3-3-----2---2---2---2-2-2-2-2-2-2-2-2-2-2---|
E|--------------------------------------------------------------|


  Riff 3a

e|------------------------------------------------------------------|
B|------------------------------------------------------------------|
G|------------------------------------------------------------------|
D|---10-9--9-9-9----9-10--10-10-10----10-9--9-9-9----9-10--10-10-10-|
A|-7--------------7-----------------7--------------7----------------|
E|------------------------------------------------------------------|


  Riff 3b

e|------------------------------------------------------------------|
B|------------------------------------------------------------------|
G|---10-9--9-9-9----9-10--10-10-10----10-9--9-9-9----9-10--10-10-10-|
D|-7--------------7-----------------7--------------7----------------|
A|------------------------------------------------------------------|
E|------------------------------------------------------------------|


  Riff 4

e|-------------------------------------11-10\--------------------|
B|-------------------------11-10-----8---------------------------|
G|--------------10-9-----7------------------------------12--11---|
D|---10-9-----7-------------------------------------10-----------|
A|-7-------------------------------------------------------------|
E|---------------------------------------------------------------|


  E-Slide

A|-----------| Just slide your finger down the
E|----7\0----| fretboard on the Low E string
               and play it real fast-like

I'm pretty sure that the whole song is right, except I'm not
certain about Riff 2. It's darn close, though.


Here's the order of the song:

intro
Riff 1a (4x)
Riff 1b (2x)
Riff 1a (2x)
Riff 2
Riff 1a (4x)
Riff 1b (2x)
Riff 1a (2x)
Riff 2
Riff 3a (3x)
Riff 3b
Riff 3a
Riff 4
E-Slide

Then the whole song (basically) repeats with distortion:

Riff 1a (4x)
Riff 1b (2x)
Riff 1a (2x)
Riff 2
E-Slide
Riff 1a (4x)
Riff 1b (2x)
Riff 1a (2x)
Riff 2
Riff 3a (3x)
Riff 3b
Riff 3a
Riff 4

transcribed by Steve 
Tap to rate this tab
# A B C D E F G H I J K L M N O P Q R S T U V W X Y Z