Song name
# A B C D E F G H I J K L M N O P Q R S T U V W X Y Z

Jugheads Revenge - Tearing Down The World tab

t. See http://www.olga.net/faq/ for more information.                     #
#-----------------------------------------------------------------------------#

Date: Mon, 6 Mar 2000 16:29:25 -0500
From: "Steve Mallien" 
Subject: j/jugheads_revenge/tearing_down_the_world.tab

--------------------------------------------------------------------------
                        Tearing Down the World - Jughead's Revenge
--------------------------------------------------------------------------

By: Jon Niemi
   bass intro                     Gtr. 1
e|------------------------------------------|---------------------|
B|------------------------------------------|---------------------|
G|--------------------------------6-6-6-6-6-|-2-2-2-2-2-----------|
D|--------------------------------6-6-6-6-6-|-2-2-2-2-2-2-2-2-2-2-|
A|-0-0-0-0-0----------------------4-4-4-4-4-|-0-0-0-0-0-2-2-2-2-2-|
E|-----------0-0-0-2-0-2-2-2-2-2------------|-----------0-0-0-0-0-|

 p.m^^   ^^^^   ^^^^   ^^^^    In everything she sees, hardened reality...
e|----------------------------|-----------------------------------------|
B|----------------------------|-----------------------------------------|
G|----------------------------|-2-2-2-2-2---------------------6-6-6-6-6-|
D|-4-4-4--4-4-4--4-4-4--4-4-4-|-2-2-2-2-2-2-2-2-2-2-4-4-4-4-4-6-6-6-6-6-|
A|-4-4-4--4-4-4--4-4-4--4-4-4-|-0-0-0-0-0-2-2-2-2-2-4-4-4-4-4-4-4-4-4-4-|
E|-2-2-2--2-2-2--2-2-2--2-2-2-|-----------0-0-0-0-0-2-2-2-2-2-----------|

e|-----------------------------------------|---------------------
B|-----------------------------------------|---------------------
G|-7-7-7-7-7-----------9-9-9-9-9-9-9-9-9-9-|-----------9-9-9-9-9-
D|-7-7-7-7-7-7-7-7-7-7-9-9-9-9-9-9-9-9-9-9-|-7-7-7-7-7-9-9-9-9-9-
A|-5-5-5-5-5-7-7-7-7-7-7-7-7-7-7-7-7-7-7-7-|-7-7-7-7-7-7-7-7-7-7-
E|-----------5-5-5-5-5---------------------|-5-5-5-5-5-----------


  ----------------------|-----------------------------------------|
  ----------------------|-----------------------------------------|
  -----------6-6-6-6-6-6|-7-7-7-7-7-----------9-9-9-9-9-9-9-9-9-9-|
  -4-4-4-4-4-6-6-6-6-6-6|-7-7-7-7-7-7-7-7-7-7-9-9-9-9-9-9-9-9-9-9-|
  -4-4-4-4-4-4-4-4-4-4-4|-5-5-5-5-5-7-7-7-7-7-7-7-7-7-7-7-7-7-7-7-|
  -2-2-2-2-2------------|-----------5-5-5-5-5---------------------|

Riff 1 (chorus I think)                            End Riff 1
 And as I watched...
e|----------------------------------------------------------|
B|----------------------------------------------------------|
G|-6-6-6-6-6-6-6--7-7-7---------------------9-9-9-9-9-9-9-9-|
D|-6-6-6-6-6-6-6--7-7-7-11-9--9-9-9-9-9-9-9-9-9-9-9-9-9-9-9-|
A|-4-4-4-4-4-4-4--5-5-5--9-7--9-9-9-9-9-9-9-7-7-7-7-7-7-7-7-|
E|----------------------------7-7-7-7-7-7-7-----------------|

  We peeled down...
e|-----------------------------------------|---------------------
B|-----------------------------------------|---------------------
G|-----------9-9-9-9-9-----------6-6-6-6-6-|-7-7-7-7-7-----------
D|-7-7-7-7-7-9-9-9-9-9-4-4-4-4-4-6-6-6-6-6-|-7-7-7-7-7-----------
A|-7-7-7-7-7-7-7-7-7-7-4-4-4-4-4-4-4-4-4-4-|-5-5-5-5-5-7-7-7-7-7-
E|-5-5-5-5-5-----------2-2-2-2-2-----------|-----------9-9-9-9-9-

                                            p.m^^  ^^^^  ^^^^   ^^^^
  ---------------------|-----------------------------------------------|
  ---------------------|-----------------------------------------------|
  -----------7-7-7-7-7-|-----------9-9-9-9-9--------------6-6-6--6-6-6-|
  -9-9-9-9-9-7-7-7-7-7-|-7-7-7-7-7-9-9-9-9-9-4-4-4--4-4-4-6-6-6--6-6-6-|
  -9-9-9-9-9-5-5-5-5-5-|-7-7-7-7-7-7-7-7-7-7-4-4-4--4-4-4-4-4-4--4-4-4-|
  -7-7-7-7-7-----------|-5-5-5-5-5-----------2-2-2--2-2-2--------------|

e|-----------------------------------------|
B|-----------------------------------------|
G|-7-7-7-7-7-----------9-9-9-9-9-9-9-9-9-9-|
D|-7-7-7-7-7-7-7-7-7-7-9-9-9-9-9-9-9-9-9-9-|
A|-5-5-5-5-5-7-7-7-7-7-7-7-7-7-7-7-7-7-7-7-|
E|-----------5-5-5-5-5---------------------|


Riff 1 x 2

p.m.^^^^^^^^^^^^^^^^^^^^^^^^^^^^^^^^^^^^^^^^^^^^^^^^
e|-------------------------|-------------------------|
B|-------------------------|-------------------------|
G|-------------------------|-------------------------|
D|-4-4-4-4-4-4-4-4-4-4-4-4-|-4-4-4-4-4-4-4-4-4-4-4-4-|
A|-4-4-4-4-4-4-4-4-4-4-4-4-|-4-4-4-4-4-4-4-4-4-4-4-4-|
E|-2-2-2-2-2-2-2-2-2-2-2-2-|-2-2-2-2-2-2-2-2-2-2-2-2-|


Gtr. 2 F#5    A5     D5     E5(high)

Gtr. 1
e|-x\--------------------------|
B|-x\--------------------------|
G|-x\--6~~~~~/9~~~~~/11~~~~~13-|
D|-x\--------------------------|
A|-x\--------------------------|
E|-x\--------------------------|
                     play 3 times
e|------------------------------|------------------------------------------|
B|------------------------------|------------------------------------------|
G|-----------------7-7-7--9-9-9-|-11-11-11----------7-7-7-------9-9-9 9-9-9|
D|-4-4-4--7-7-7-7--7-7-7--9-9-9-|-11-11-11-11-11-11-7-7-7-7-7-7-9-9-9-9-9-9|
A|-4-4-4--7-7-7-7--5-5-5--7-7-7-|--9--9--9-11-11-11-5-5-5-7-7-7-7-7-7-7-7-7|
E|-2-2-2--5-5-5-5---------------|-----------9--9--9-------5-5-5------------|


Riff 1 x 2

Outro: play slower
e|------------------|------------------|------------------|-------------|
B|------------------|------------------|------------------|-------------|
G|------------------|-7--7--7--6--6--6-|-9--9--9--9--9--9-|-------------|
D|-7~~~~~~~~~~~~~~~-|-7--7--7--6--6--6-|-9--9--9--9--9--9-|-7~~~~~~~~~~-|
A|-7~~~~~~~~~~~~~~~-|-5--5--5--4--4--4-|-7--7--7--7--7--7-|-7~~~~~~~~~~-|
E|-5~~~~~~~~~~~~~~~-|------------------|------------------|-5~~~~~~~~~~-|

==========================================================================
Tap to rate this tab
# A B C D E F G H I J K L M N O P Q R S T U V W X Y Z