Song name
# A B C D E F G H I J K L M N O P Q R S T U V W X Y Z

Juice - Nine And Three Quarters tab

Intro/Verse

|----------------------------------------------------------------------------|------0-0-|
|----------------------------------------------------------------------------|------9-9-|
|----------11-------11---------11-------11---------9------9---------9------9-|------6-6-|
|-----9--------9----------9--------9----------9------9---------9------9------|------7-7-|
|--11---11-------11----11---11-------11----11---11-----11---11---11-----11---|--0-0-0-0-|
|--0---------------------------------------0---------------------------------|----------|


X2

Chorus

E                             C#minor

|------7-------7-------7-9-7-----------4-------4-------4-------4---|
|----9---9---9---9---9-------9---9---5---5---5---5---5---5---5---5-|
|--9-------9-------9-----------9---6-------6-------6-------6-------|
|------------------------------------------------------------------|
|------------------------------------------------------------------|
|------------------------------------------------------------------|     X2

Amaj7              C#min          E
       
|--------4-------------------------0--------------4-------------------------0-|
|------5---5-----------5-----------0------------5---5-----------5-----------0-|
|----6-------6---6---6---6---6---6-1----------6-------6---6---6---6---6---6-1-|
|--7-----------7---7-------7---6---2--------7-----------7---7-------6---6---2-|
|----------------------------------2----------------------------------------2-|
|----------------------------------0----------------------------------------0-|


Outro

Really Loud and Fast. You can figure out the rhythym. Here's the chords.

|--0--------------0----------0-|
|--0--------------0----------9-|
|--11-------------9----------6-|
|--9--------------9----------7-|
|--11-------------11---------0-|
|--0--------------0------------|


www.facebook.com/JUICEband 

Tap to rate this tab
 
# A B C D E F G H I J K L M N O P Q R S T U V W X Y Z