Song name
# A B C D E F G H I J K L M N O P Q R S T U V W X Y Z

Jujimufu - Bunnyhop chords

This is Jujimufu's bunnyhop song....no heis not a musician he is a tricker and this is 
of his spoofs, Enjoy!!!!!
If you want to hear it look at the link below

http://www.youtube.com/watch?v=plhXRtzeYJU


Soft Riff
e-7-7-5-5-4-0---7-5-4---7-7-5-5-4-0-0-3-3-3----------------------|
b----------------------------------------------------------------|
g----------------------------------------------------------------|
d----------------------------------------------------------------|   X2
a----------------------------------------------------------------|
E----------------------------------------------------------------|

Hard Riff
e-------------------------------------------3333333--------------|
b-------------------------------------------3333333--------------|
g-4-4--2-2-------4---2-------4-4--2-2-------0000000--------------|
d-4-4--2-2-6--2--4---2---6---4-4--2-2--6-2--0000000--------------|
a-2-2--0-0-6--2--2---0---6---2-2--0-0--6-2--2222222--------------|
E----------4--0----------4-------------4-0--3333333--------------|

Song Order:
Soft
Hard
Soft X1
Hard X3

You can comment me on my YouTube

http://www.youtube.com/user/FreerunnerDave

Tabbed By David McDonald
Tap to rate this tab
 
# A B C D E F G H I J K L M N O P Q R S T U V W X Y Z