Song name
# A B C D E F G H I J K L M N O P Q R S T U V W X Y Z

Jukka Poika - Silkkii tab

Jukka Poika - Silkkii

Un artiste finlandais qui gagnerait a être connu chez nous!
Sorry But In french ;)

Accords : G#m, F#, E, C#m, D#m
Sonorités . x = étouffé (mute)
            ~ = laisser sonner (let ring)
            au solo, le "8h9p8" signifie faire un coulé

Guitare 1 (Rythmique)

Intro:
    
  | G#m / / F# / / G#m / /              
e |-4-------2-------4~----------------|
B |-4-------2-------4~----------------|
G |-4-------3-------4~----------------|
D |-6----6--4----4--6~----------------|
A |-6--6----4--4----6~----------------|
E |-4-------2-------4~----------------|

Un peu après le premier refrain intervient ce riff, joué par une troisième guitare:

   E / /
E|-0~-------------------------------|-----------------------------------|
B|-0~-------------------------------|-----------------------------------|
G|-1~-------------------------------|-----------------------------------|
D|-2~-------------------------------|-----------------------------------|
A|-2~-------------------------------|-----------------------------------|
E|-0~-------------------------------|-----------------------------------|

(not finish xD)


Refrain : 

  | G#m / / F# / / E / / E / /| G#m / / F# / / E / / E / /             
e |-4-------2------0-----0----|-4-------2------0-----0----|
B |-4-------2------0-----0----|-4-------2------0-----0----|
G |-4-------3------1-----1----|-4-------3------1-----1----|
D |-6-------4------2-----2----|-6-------4------2-----2----|
A |-6-------4------2-----2----|-6-------4------2-----2----|
E |-4-------2------0-----0----|-4-------2------0-----0----| x2 puis 

 | C#m / / C#m / / D#m / / D#m / /   
E|-4-------4-------6-------6---------|-----------------------------------|
B|-5-------4-------6-------6---------|-----------------------------------|
G|-6-------5-------7-------7---------|-----------------------------------|
D|-6-------6-------8-------8---------|-----------------------------------|
A|-4-------4-------6-------6---------|-----------------------------------|
E|-----------------------------------|-----------------------------------|

Sauf au second refrain (not at the 2nd chorus)

Couplet 1 & 2 : 

 | G#m / / F# / / E / / E / /| G#m / / F# / / E / / E / /             
e |-4-------2------0-----0----|-4-------2------0-----0----|
B |-4-------2------0-----0----|-4-------2------0-----0----|
G |-4-------3------1-----1----|-4-------3------1-----1----|
D |-6-------4------2-----2----|-6-------4------2-----2----|
A |-6-------4------2-----2----|-6-------4------2-----2----|
E |-4-------2------0-----0----|-4-------2------0-----0----| x2


Couplet 3 :

   E / / E / / F# / / F# / /  D#m / / D#m / / E / / E / / 
E|-0-----0-----2------2-----|-6-------6-------7-----7----|
B|-0-----0-----2------2-----|-7-------7-------9-----9----|
G|-1-----1-----3------3-----|-8-------8-------9-----9----|
D|-2-----2-----4------4-----|-8-------8-------9-----9----|
A|-2-----2-----4------4-----|-6-------6-------7-----7----|
E|-1-----1-----3------3-----|----------------------------|

   E / / E / / F# / / F# / /  D#m / / D#m / / F# / /
E|-7-----7-----9------11----|-6-------6-------x----------------|
B|-9-----9-----11------9----|-7-------7-------x----------------|
G|-9-----9-----11------9----|-8-------8-------x----------------|
D|-9-----9-----11------9----|-8-------8-------x----------------|
A|-7-----7-----9------11----|-6-------6-------x----------------|
E|--------------------------|----------------------------------|

Jouer ce dernier Fa# en 9e case, de bas en haut. C'est pas très naturel c'est vrai ;)

Guitare 2 (Acompagnement & Solo) 

Riff Guitar 2 (unfinished again ^^") :
 
e|-11-------------------------------|-----------------------------------|
B|----12----------------------------|-----------------------------------|
G|-------13-------------------------|-----------------------------------|
D|----------------------------------|-----------------------------------|
A|----------------------------------|-----------------------------------|
E|----------------------------------|-----------------------------------|

(a jouer pendant l'intro et aux refrains)
Solo :

E|----------------(14x)--14-11----------------------------------(0)---|
B|--9~--9-9-9-7~---------------14-12----------------------------(0)---|
G|-----------------------------------13-11----------------------(1)---|
D|-----------------------------------------13-11----11----------(2)---|
A|-----------------------------------------------14----9-9-9~---------|
E|--------------------------------------------------------------------|

E|----------------------------------|--7-4----------------------------|
B|----------------------------------|------7-4------------------------|
G|----------------------------------|----------6-4--------------------|
D|-----6-8-9-8-9~-8h9p8-6-----------|--------------6-4/8---8-9~-------|
A|-7-9--------------------9~--------|--------------------9------------|
E|----------------------------------|---------------------------------|

Solo assez simple et court mais qui rend super bien avec un bon effet. Les notes entre
parenthèses sont jouées par l'autre guitare, je les aient mises là pour que vous voyez
la rythmique.

Pendant le solo on reste sur le riff couplet.

Riff Supplementaire (one riff more) :

A jouer au pre refrain et à la fin du solo.
(played it pre-chorus and at the end of the solo)

   G#m / / F# / / E / /
E|----------------0~-----------------|
B|----------------0~-----------------|
G|----------------1~-----------------|
D|--6---6--4---4--2~-----------------|
A|----6------4----2~-----------------|
E|----------------0~-----------------|
Tap to rate this tab
 
# A B C D E F G H I J K L M N O P Q R S T U V W X Y Z