Song name
# A B C D E F G H I J K L M N O P Q R S T U V W X Y Z

Jul Erades - Call Me At 404 tab

Call me at 4:04 by Jul Erades

CAPO at 6TH FRET

             G6 5/B                                C(sus2)
E -------0------------|---------0--------------|
B -------3------------|---------3--------------|
G -------0------------|---------0--------------|
D -------0------------|---------2--------------|
A -------2-0-2--------|---------3-0-3----------|
E -------X------------|---------X--------------|

Verse 1

When the time is here, A sign for a day,,
You let me see your face, But nothing's gonna change...

"Double two" or "eight", A smile or a way,
A joke for a day, Just let me hear you say !?

          Em7                      D4/F#                 G6 5                 G6 5
E ----0---------|-----0--------|------0-------|------0------|
B ----3---------|-----3--------|------3-------|------3------|
G-----0---------|-----0--------|------0-------|------0------|
D ----0---------|-----0--------|------0-------|------0------|
A ----2-0-2-----|-----0--------|------2-0-2---|------2-0-2--|
E ----0-0-0-----|-----2-0-2----|------3-0-3---|------3-0-3--|

Chorus

Why don't you call me "away" ! hey! yeah...
Why don't you call me "away" ! hey! yeah...

Verse 2

On my watch it's "double four" The mobile plays the "nine",
Double six for my plane, I wake up at "double five".

Too much for a day, Passing time drives me crazy
A reason for me ! A way for you to say... yeah...

Why don't you call me "away" ! hey! yeah...
Why don't you call me "away" ! hey! yeah...
Why don't you call me "away" ! hey! hey! yeah...
Why don't you call me "away" ! hey! yeah...

Bridge

              A7sus4               C(sus2)              Dsus2         Dsus2
E -------0-------|------0-------|-----0-----|----0-------|
B -------3-------|------3-------|-----3-0-3-|----3-0-3---|
G -------0-------|------0-------|-----2-0-2-|----2-0-2---|
D -------2-0-2---|------2-------|-----0-----|----0-------|
A -------0-------|------3-0-3---|-----X-----|----X-------|
E -------X-------|------X-------|-----X-----|----X-------|

Now a "double " makes me smile, I've got a "double smile" !!!!

Why don't you call me "away" ! hey! yeah...
Why don't you call me "away" ! hey! yeah...
Why don't you call me "away" ! hey! hey! yeah...
Why don't you call me "away" ! hey! yeah...

http://www.youtube.com/watch?v=xtKwwg-mjNE

www.julerades.com
Tap to rate this tab
# A B C D E F G H I J K L M N O P Q R S T U V W X Y Z