Song name
# A B C D E F G H I J K L M N O P Q R S T U V W X Y Z

Jules Larson - You Know Its True tab

-------------------------------------------------------------------------------
			     You Know It's True - Jules Larson
-------------------------------------------------------------------------------
Tabbed by: Chau Luu
E-mail: chaulink@gmail.com

Tuning: Standard (EADGBE)

-------------------------------------------------------------------------------

Chords used:

 Bar:      (IV)      (II)       (IV)      (II)
e|-0--------4---------2----------4---------2------------------|
B|-0--------4---------2----------5---------4------------------|
G|-1--------4---------3----------6---------4------------------|
D|-2--------6---------4----------6---------4------------------|
A|-2--------6---------4----------4---------2------------------|
E|-0--------4---------2----------x---------x------------------|
   
   E       G#m        F#        C#m        B

-------------------------------------------------------------------------------

Intro:

(1st Part)
e|-----2--------2--------4--------4-----4--|
B|-----------4--------4--------4-----------|
G|--4-----4--------4--------4--------4-----| (x2)
D|-----------------------------------------| 
A|-----------------------------------------|
E|-----------------------------------------|

(2nd Part)
e|-----7--------7--------9--------9-----9-----7--------7--------7----6----4----|
B|-----------9--------9--------9--------------------9--------9--9----7----5----|
G|--9-----9--------9--------9--------9-----9-----9--------9--------------------|
D|-----------------------------------------------------------------------------|
A|-----------------------------------------------------------------------------|
E|-----------------------------------------------------------------------------|
                                  


Verse (x2):

e|-----2--------2--------4--------4-----4--|
B|-----------4--------4--------4-----------|
G|--4-----4--------4--------4--------4-----| (x2)
D|-----------------------------------------| 
A|-----------------------------------------|
E|-----------------------------------------|
  |The more they come...                  
  |It's not a lie....

e|-----7--------7--------9--------9-----9-----7--------7--------7----6----4----|
B|-----------9--------9--------9--------------------9--------9--9----7----5----|
G|--9-----9--------9--------9--------9-----9-----9--------9--------------------|
D|-----------------------------------------------------------------------------|
A|-----------------------------------------------------------------------------|
E|-----------------------------------------------------------------------------|
                                     |But it all...
                              
e|-----2--------2--------4--------4-----4--|
B|-----------4--------4--------4-----------|
G|--4-----4--------4--------4--------4-----| (x2)
D|-----------------------------------------| 
A|-----------------------------------------|
E|-----------------------------------------|


Chorus:

E        G#m          F#  
One day, I'll see you walking and 
E        G#m          F#
One day, we'll get to talking and 
E        G#m          F#              C#m      E
I'll say, ever since I set eyes on you... 
E             (intro 1st part)
you know it's true 


Verse (x2)


Chorus (immediately into bridge instead of intro 1st part)


Bridge:
F#             G#m
Is it alright, is it alright... 
E                           B
if I tell you how I feel? 
F#               G#m
If it's alright, if it's alright... 
E
I just wanted you to know 
E
how I do adore you so


Solo guitar strumming (same pattern as bridge):

F#, G#m, E, B, F#, G#m, E


Chorus (x2)

-------------------------------------------------------------------------------

Complete lyrics:

(Intro)

The more they come, the more they go 
it's not a lie, I know you told me so 
but it all works out 

Days go by when we're apart 
but everything that always seems so hard 
well, it all works out 
 
One day, I'll see you walking and 
One day, we'll get to talking and 
I'll say, ever since I set eyes on you... 
you know it's true 

I put your locket in my heart 
keeping you close no matter where you are 
cause it all works out 

Images in black and white 
playing back this moment in my mind 
cause you always shine 

One day, I'll see you walking and 
One day, we'll get to talking and 
I'll say, ever since I set eyes on you... 
you know it's true 

Is it alright, is it alright... 
if I tell you how I feel? 
If it's alright, if it's alright... 
I just wanted you to know 
how I do adore you so

(Bridge Chords)

One day, I'll see you walking and 
One day, we'll get to talking and 
I'll say, ever since I set eyes on you... 
you know it's true 

One day, I'll see you walking and 
One day, we'll get to talking and 
I'll say, ever since I set eyes on you... 
you know it's true 

-------------------------------------------------------------------------------

Enjoy! Please leave feedback! :D
Tap to rate this tab
# A B C D E F G H I J K L M N O P Q R S T U V W X Y Z