Song name
# A B C D E F G H I J K L M N O P Q R S T U V W X Y Z

Juli - Warum tab

Juli - Warum


Tabbed by: David Blumberg
davidblumberg@pixay.com

INTRO: Em Bm C D x6


Em
Du stellst mir 1000 Fragen,

stellst dich mitten in den Wind
	C
und ich hoff du checkst,
		D
dass sie nicht wichtig sind
	Em
Komm wir setzen jetzt die Segel,

nehmen alles mit, was geht
	   C
nicht mehr umzudrehn,
		D
auch wenn der Wind sich dreht.

	 Em
Hey, ich hör dich leise lachen

und dann merk ich, wies mich trifft.
	C
Ja, ich liebe diese Tage
	D
die man morgens schon vergisst
	Em
und ich schau dir in die Augen

bin geblendet von dem Licht,
	  C
was jetzt um sich greift,
	  D
auch wenn du nicht sprichst

    Am		   D
Und alles an dir,
	Em
bleibt stumm.

Em Bm   C	D		Em
Warum, warum, warum ist doch egal
     Bm     C		  D		Em
denn heute Nacht sind nur wir zwei wichtig.
   Bm   C	D		Em
Warum, warum, warum ist doch egal
   Bm		  C    D
warum ist jetzt egal.


Wir schaun über die Dächer
ich schreib dein Namen in die Nacht,
hey, wir brauchen nicht mal Worte
denn es reicht schon, wenn du lachst.
Aus Sekunden werden Stunden
und ich weiß es klingt verrückt,
doch wenns ganz hart kommt
drehn wir die Zeit zurück.


Am           D
Und alles an dir
       C      D
bleibt stumm.

Em Bm   C	D		Em
Warum, warum, warum ist doch egal
     Bm     C		  D		Em
denn heute Nacht sind nur wir zwei wichtig.
   Bm   C	D		C
Warum, warum, warum ist doch egal,
		  D
warum ist jetzt egal
		 C D
Warum ist doch egal


[INTERLUDE] Fairly accurate. Hard timing.

Gtr 1
|------------------------------------------------------|
|------------------------------------------------------|
|------------------------------------------------------|
|-2--2--2-2--2-2--2-2--2--2--4--4--4-4--4-4--4-4--4--4-|
|------------------------------------------------------|
|------------------------------------------------------|

-----------------------------------------------------|
-----------------------------------------------------|
-----------------------------------------------------|
-5--5--5-5--5-5--5-5--5--5--7--7--7-7--7-7--7-7--7--7|
-----------------------------------------------------|
-----------------------------------------------------|

Gtr 2
|------------------------------------------------------------------------|
|------------------------------------------------------------------------|
|------------------------------------------------------------------------|
|-9--9--9-9--9-9--9-9--9--9--11--11--11-11--11-11--11-11--11--11---------|
|------------------------------------------------------------------------|
|------------------------------------------------------------------------|

-------------------------------------------------------------------------|
-------------------------------------------------------------------------|
-------------------------------------------------------------------------|
-12--12--12-12--12-12--12-12--12--12--14--14--14-14--14-14--14-14--14--14|
-------------------------------------------------------------------------|
-------------------------------------------------------------------------|


[BRIDGE]

Em		 D		Bm		C
|-------------------------------------------------------------|
|-------------3-------------3--------------3---------------3--|
|----------0-------------0--------------0---------------0-----|
|--2--4-4--------2--4-4---------2--4-4----------2--4-4--------|
|-------------------------------------------------------------|
|-------------------------------------------------------------|


Em	  D
Bleib bei mir,

du siehst zu mir,
Bm	   C
bleib noch hier.
Em	  D
Bleib bei mir

du siehst zu mir,
Bm	  C
bleib bei mir.


Em Bm   C	D		Em
Warum, warum, warum ist doch egal
     Bm     C		  D		Em
denn heute Nacht sind nur wir zwei wichtig.
   Bm   C	D		C
Warum, warum, warum ist doch egal
		  D
warum ist jetzt egal.

Em Bm   C	D		Em
Warum, warum, warum ist doch egal
     Bm     C		  D		Em
denn heute Nacht sind nur wir zwei wichtig.
   Bm   C	D		C
Warum, warum, warum ist doch egal,
		  D
warum ist jetzt egal
		 C D
Warum ist doch egal


[Outro]
|-------------|
|-------------|
|-------------|
|----9--------|
|-7----7--5-7-|
|-------------|
Tap to rate this tab
# A B C D E F G H I J K L M N O P Q R S T U V W X Y Z