Song name
# A B C D E F G H I J K L M N O P Q R S T U V W X Y Z

Juli - Am Besten Sein tab

Help us improve GuitareTab! Take a short survey!
Hey! 

This is my Version of the Juli song "Am Besten Sein"
I think it's pretty perfect. Please rate it. Thanks

Intro: (I couldn't really figure it out)

E-----|-----|
A-----|-----|
D-2~~-|-2~~-|
G-4~~-|-4~~-|
B-----|-----|
e-----|-----|

Verse: 

"Ihr wollt es immer noch höher..."

Guitar 1 & 2

E-----------------|-2-2-2-2-2-2-2-2-|-3-3-3-3-3-3-3-3-|-5-5-5-5-5-5-5-5-|
A-2-2-2-2-2-2-2-2-|-4-4-4-4-4-4-4-4-|-5-5-5-5-5-5-5-5-|-7-7-7-7-7-7-7-7-|
D-4-4-4-4-4-4-4-4-|-4-4-4-4-4-4-4-4-|-5-5-5-5-5-5-5-5-|-7-7-7-7-7-7-7-7-|
G-4-4-4-4-4-4-4-4-|-----------------|-----------------|-----------------|  2x
B-----------------|-----------------|-----------------|-----------------|
e-----------------|-----------------|-----------------|-----------------|


"Wir lassen los und bleiben stehen"

Guitar 1:

E-----------------|-5-5-5-5-5-5-5-5-|
A-2-2-2-2-2-2-2-2-|-7-7-7-7-7-7-7-7-|
D-4-4-4-4-4-4-4-4-|-7-7-7-7-7-7-7-7-|  2x
G-4-4-4-4-4-4-4-4-|-----------------|
B-----------------|-----------------|
e-----------------|-----------------|

E-----------------|-----------------|-2--------------|
A-2-2-2-2-2-2-2-2-|-2-2-2-2-2-2-2-2-|-4--------------|
D-4-4-4-4-4-4-4-4-|-4-4-4-4-4-4-4-4-|-4--------------|
G-4-4-4-4-4-4-4-4-|-4-4-4-4-4-4-4-4-|----------------|
B-----------------|-----------------|----------------|
e-----------------|-----------------|----------------|


Guitar 2:

E-----------------|-----------------|
A-2-2-2-2-5-5-5-5-|-7-7-7-7-7-7-7-7-|
D-x-x-x-x-x-x-x-x-|-x-x-x-x-x-x-x-x-|
G-4-4-4-4-7-7-7-7-|-9-9-9-9-9-9-9-9-|
B-----------------|-----------------|
e-----------------|-----------------|


E-----------------|-------------------------|
A-2-2-2-2-5-5-5-5-|-9--9--9--9--9--9--9--9--|
D-x-x-x-x-x-x-x-x-|-x--x--x--x--x--x--x--x--|
G-4-4-4-4-7-7-7-7-|-11-11-11-11-11-11-11-11-|
B-----------------|-------------------------|
e-----------------|-------------------------|

"Ihr rennt los, wir bleiben stehen"

E-----------------|-----------------|-2---|
A-2-2-2-2-5-5-5-5-|-2-2-2-2-5-5-5-5-|-4---|
D-x-x-x-x-x-x-x-x-|-x-x-x-x-x-x-x-x-|-4---|
G-4-4-4-4-7-7-7-7-|-4-4-4-4-7-7-7-7-|-----|
B-----------------|-----------------|-----|
e-----------------|-----------------|-----|

Right before the Chorus:

Guitar 1 & 2

E---------|
A-0-0-0-0-|
D-2-2-2-2-|
G-2-2-2-2-|
B---------|
e---------|


Chorus:

"Wir wollen nicht die Besten sein, wir wollen unsere Herzen nicht verlieren..."

Guitar 1 & 2

E-----------------|-----------------|
A-2-2-2-2-4-4-4-4-|-5-5-5-5-4-4-4-4-|
D-4-4-4-4-6-6-6-6-|-7-7-7-7-6-6-6-6-| 3x
G-4-4-4-4-6-6-6-6-|-7-7-7-7-6-6-6-6-|
B-----------------|-----------------|
e-----------------|-----------------|

E-----------------|-----------------|
A-2-2-2-2-2-2-2-2-|-0-0-0-0-0-0-0-0-|
D-4-4-4-4-4-4-4-4-|-2-2-2-2-2-2-2-2-|
G-4-4-4-4-4-4-4-4-|-2-2-2-2-2-2-2-2-|
B-----------------|-----------------|
e-----------------|-----------------|

E-0-0-0-0-0-0-0-0-|-----------------|
A-2-2-2-2-2-2-2-2-|-7-7-7-7-7-7-7-7-|
D-2-2-2-2-2-2-2-2-|-9-9-9-9-9-9-9-9-|
G-----------------|-9-9-9-9-9-9-9-9-|
B-----------------|-----------------|
e-----------------|-----------------|


Xylophone plays something like that:


E--------------|--------------|--------------|-----------------|
A--------------|--------------|--------------|-----------------|
D--------------|--------------|--------------|-----------------|
G--------------|--------------|--------------|-----------------|
B------------3-|--------------|------------3-|----------5----3-|
e-5--5-55--3---|-5--5-55--3-2-|-5--5-55--3---|-2-2-2-3----2----|


Verse 2: 

"Ihr wollt es immer noch schöner..."

Guitar 1 & 2

E-----------------|-2-2-2-2-2-2-2-2-|-3-3-3-3-3-3-3-3-|-5-5-5-5-5-5-5-5-|
A-2-2-2-2-2-2-2-2-|-4-4-4-4-4-4-4-4-|-5-5-5-5-5-5-5-5-|-7-7-7-7-7-7-7-7-|
D-4-4-4-4-4-4-4-4-|-4-4-4-4-4-4-4-4-|-5-5-5-5-5-5-5-5-|-7-7-7-7-7-7-7-7-|
G-4-4-4-4-4-4-4-4-|-----------------|-----------------|-----------------|  2x
B-----------------|-----------------|-----------------|-----------------|
e-----------------|-----------------|-----------------|-----------------|


"Wir lassen los und bleiben stehen"

Guitar 1:

E-----------------|-5-5-5-5-5-5-5-5-|
A-2-2-2-2-2-2-2-2-|-7-7-7-7-7-7-7-7-|
D-4-4-4-4-4-4-4-4-|-7-7-7-7-7-7-7-7-|  2x
G-4-4-4-4-4-4-4-4-|-----------------|
B-----------------|-----------------|
e-----------------|-----------------|

E-----------------|-----------------|-2--------------|
A-2-2-2-2-2-2-2-2-|-2-2-2-2-2-2-2-2-|-4--------------|
D-4-4-4-4-4-4-4-4-|-4-4-4-4-4-4-4-4-|-4--------------|
G-4-4-4-4-4-4-4-4-|-4-4-4-4-4-4-4-4-|----------------|
B-----------------|-----------------|----------------|
e-----------------|-----------------|----------------|


Guitar 2:

E-----------------|-----------------|
A-2-2-2-2-5-5-5-5-|-7-7-7-7-7-7-7-7-|
D-x-x-x-x-x-x-x-x-|-x-x-x-x-x-x-x-x-|
G-4-4-4-4-7-7-7-7-|-9-9-9-9-9-9-9-9-|
B-----------------|-----------------|
e-----------------|-----------------|


E-----------------|-------------------------|
A-2-2-2-2-5-5-5-5-|-9--9--9--9--9--9--9--9--|
D-x-x-x-x-x-x-x-x-|-x--x--x--x--x--x--x--x--|
G-4-4-4-4-7-7-7-7-|-11-11-11-11-11-11-11-11-|
B-----------------|-------------------------|
e-----------------|-------------------------|

"Ihr rennt los, wir bleiben stehen"

E-----------------|-----------------|-2---|
A-2-2-2-2-5-5-5-5-|-2-2-2-2-5-5-5-5-|-4---|
D-x-x-x-x-x-x-x-x-|-x-x-x-x-x-x-x-x-|-4---|
G-4-4-4-4-7-7-7-7-|-4-4-4-4-7-7-7-7-|-----|
B-----------------|-----------------|-----|
e-----------------|-----------------|-----|

Right before the Chorus:

Guitar 1 & 2

E---------|
A-0-0-0-0-|
D-2-2-2-2-|
G-2-2-2-2-|
B---------|
e---------|


Chorus:

"Wir wollen nicht am Besten sein, wir wollen unsere Herzen nicht verlieren..."

Guitar 1 & 2

E-----------------|-----------------|
A-2-2-2-2-4-4-4-4-|-5-5-5-5-4-4-4-4-|
D-4-4-4-4-6-6-6-6-|-7-7-7-7-6-6-6-6-| 3x
G-4-4-4-4-6-6-6-6-|-7-7-7-7-6-6-6-6-|
B-----------------|-----------------|
e-----------------|-----------------|

E-----------------|-----------------|
A-2-2-2-2-2-2-2-2-|-0-0-0-0-0-0-0-0-|
D-4-4-4-4-4-4-4-4-|-2-2-2-2-2-2-2-2-|
G-4-4-4-4-4-4-4-4-|-2-2-2-2-2-2-2-2-|
B-----------------|-----------------|
e-----------------|-----------------|

E-0-0-0-0-0-0-0-0-|-----------------|
A-2-2-2-2-2-2-2-2-|-7-7-7-7-7-7-7-7-|
D-2-2-2-2-2-2-2-2-|-9-9-9-9-9-9-9-9-|
G-----------------|-9-9-9-9-9-9-9-9-|
B-----------------|-----------------|
e-----------------|-----------------|


Xylophone plays something like that:


E--------------|--------------|--------------|-----------------|
A--------------|--------------|--------------|-----------------|
D--------------|--------------|--------------|-----------------|
G--------------|--------------|--------------|-----------------|
B------------3-|--------------|------------3-|----------5----3-|
e-5--5-55--3---|-5--5-55--3-2-|-5--5-55--3---|-2-2-2-3----2----|



Interlude:

Guitar 1:

E--------------------|
A--------------------|
D--------------------|
G---------------7--7-|  3x
B-8--8-7-7-----7-----|
e---------7-7-7------|


E----------------------|
A--------------------------|
D--------------------------|
G--------------------------|
B-8--8-7-7--10-10-1010--7-7|
e--------------------------|

"Bis nichts passiert..."

Guitar 1:

E--------------------|
A--------------------|
D--------------------|
G---------------7--7-|  3x
B-8--8-7-7-----7-----|
e---------7-7-7------|

E------------------------------------------|
A------------------------------------------|
D------------------------------------------|
G------------------------------------------|  
B-8-8-8-8-7-7-7-7-10-10-10-10-12-12-12-12--|
e------------------------------------------|


Guitar 2: (I couldn't figure out the rhythm)

E-----------------|
A-----------------|
D-----------------|
G-----------------|  4x
B-7-7-7-7-7-7-7-7-|
e-7-7-7-7-7-7-7-7-|


Bridge: "Bis nichts passiert. Wir wollen nicht die Besten sein..." 


Guitar 1 & 2:

E-7-7-7-7-9--9--9--9--|-10-10-10-10--------------|
A-x-x-x-x-x--x--x--x--|-x--x--x--x---12-12-12-12-|
D-9-9-9-9-11-11-11-11-|-12-12-12-12--x--x--x--x--|
G---------------------|--------------14-14-14-14-| 2x
B---------------------|--------------------------|
e---------------------|--------------------------|

Guitar 1:

E-7-7-7-7-9--9--9--9--|-10-10-10-10--9--9--9--9-|
A-x-x-x-x-x--x--x--x--|-x--x--x--x---x--x--x--x-|
D-9-9-9-9-11-11-11-11-|-12-12-12-12--11-11-11-11|
G---------------------|-------------------------| 
B---------------------|-------------------------|
e---------------------|-------------------------|

Guitar 2:

E-7-7-7-7-9--9--9--9--|-10-10-10-10--------------|
A-x-x-x-x-x--x--x--x--|-x--x--x--x---12-12-12-12-|
D-9-9-9-9-11-11-11-11-|-12-12-12-12--x--x--x--x--|
G---------------------|--------------14-14-14-14-|
B---------------------|--------------------------|
e---------------------|--------------------------|

Guitar 1 & 2

E-10-10-10-10-----------------|-9--9--9--9--9--9--9--9---|
A-x--x--x--x---12-12-12-12----|-x--x--x--x--x--x--x--x---|
D-11-11-11-11--x--x--x--x-----|-11-11-11-11-11-11-11-11--|
G--------------14-14-14-14----|--------------------------|
B-----------------------------|--------------------------|
e-----------------------------|--------------------------|

E-------------------------|-------------------------|
A-10-10-10-10-10-10-10-10-|-9--9--9--9--9--9--9--9--|
D-x--x--x--x--x--x--x--x--|-x--x--x--x--x--x--x--x--|
G-12-12-12-12-12-12-12-12-|-11-11-11-11-11-11-11-11-|
B-------------------------|-------------------------|
e-------------------------|-------------------------|


Chorus: "Wir wollen nicht die Besten sein..."

Guitar 1

E-----------------|-----------------|
A-2-2-2-2-4-4-4-4-|-5-5-5-5-4-4-4-4-|
D-4-4-4-4-6-6-6-6-|-7-7-7-7-6-6-6-6-| 3x
G-4-4-4-4-6-6-6-6-|-7-7-7-7-6-6-6-6-|
B-----------------|-----------------|
e-----------------|-----------------|

Guitar 2:

E-7-7-7-7-9--9--9--9--|-10-10-10-10--------------|
A-x-x-x-x-x--x--x--x--|-x--x--x--x---12-12-12-12-|
D-9-9-9-9-11-11-11-11-|-12-12-12-12--x--x--x--x--|
G---------------------|--------------14-14-14-14-| 3x
B---------------------|--------------------------|
e---------------------|--------------------------|


Guitar 1 & 2:

E-----------------|-----------------|
A-2-2-2-2-2-2-2-2-|-0-0-0-0-0-0-0-0-|
D-4-4-4-4-4-4-4-4-|-2-2-2-2-2-2-2-2-|
G-4-4-4-4-4-4-4-4-|-2-2-2-2-2-2-2-2-|
B-----------------|-----------------|
e-----------------|-----------------|

E-0-0-0-0-0-0-0-0-|-----------------|
A-2-2-2-2-2-2-2-2-|-7-7-7-7-7-7-7-7-|
D-2-2-2-2-2-2-2-2-|-9-9-9-9-9-9-9-9-|
G-----------------|-9-9-9-9-9-9-9-9-|
B-----------------|-----------------|
e-----------------|-----------------|


Xylophone plays something like that:


E--------------|--------------|--------------|-----------------|
A--------------|--------------|--------------|-----------------|
D--------------|--------------|--------------|-----------------|
G--------------|--------------|--------------|-----------------|
B------------3-|--------------|------------3-|----------5----3-|
e-5--5-55--3---|-5--5-55--3-2-|-5--5-55--3---|-2-2-2-3----2----|

Repeat the Chorus



Outro:

Guitar 1:

E-3--3-2--2----------2--------|
A-5--5-4--4--2--2-2--4--5-5-5-|
D-5--5-4--4--4--4-4--4--7-7-7-|
G------------4--4-4-----7-7-7-|
B-----------------------------|
e-----------------------------|

Guitar 2:

E---------------------|
A---------------------|
D---------------------|
G---------------7-7-7-|  
B-8--8-7-7-----7------|
e---------7-7-7-------|

That's it. Hope you had enyoj it.

You can write me for questions.

Ihr könnt mir auch auf deutsch schreiben.

Don't forget to rate it.

Thanks
Related for Am Besten Sein tab