Song name
# A B C D E F G H I J K L M N O P Q R S T U V W X Y Z

Juli - Ein Gru tab

-------------------------------------------------------------------------------
			     Ein Gruß / Hidden Track - Juli
-------------------------------------------------------------------------------
Tabbed by: Transponic


Capo 4. fret

  G        Bm       Em       D        C        Am       C        D         
e|--------|--------|--------|--------|--------|--------|--------|--------|
B|--0---0-|--0---0-|--0---0-|--0---0-|--3---3-|--3--33-|--3---3-|--3---3-|
G|00--00--|--------|--------|--------|--------|--------|--------|--------|
D|--------|44--44--|22--22--|00--00--|--------|--------|--------|00--00--|
A|--------|--------|--------|--------|33--33--|00--00--|33--33--|--------|
E|--------|--------|--------|--------|--------|--------|--------|--------|
Tap to rate this tab
# A B C D E F G H I J K L M N O P Q R S T U V W X Y Z