Song name
# A B C D E F G H I J K L M N O P Q R S T U V W X Y Z

Juli - Ich Verschwinde chords

Highlighted       Show chord diagrams
e|--------------------------------------------------------------------------|
B|----------0----------------0----------------0------------------1--0-------|
G|--------0---0------------0---0------------0---0-------------0-------------|
D|--------------------------------------------------------------------------|
A|--3----------------0------------------------------------------------------|
E|------------------------------------0------------------1------------------|

C             Am               Em
Sie sagen dir, ich bin's nicht Wert,
       F
du verschwendest deine Zeit.
Sie sagen dir, du gibst zu viel,
und dass nichts übrig bleibt.
Sie sagen erstens kommt es anders,
und zweitens als man denkt.
Ich schaue raus und weiß,
wie oft man sich umsonst verschenkt
F        G              Am                C
Wenn ich anders könnte, würde ich mit dir fliegen
F                       Em
Wenn ich anders könnte. würde ich dich lieben

2x
Am
Und ich weiß,
                      Am/C
dass alles in dir schreit,
                         C
weil gar nichts von mir bleibt.
        G
Ich verschwinde

Du sagst, ich geb uns keine Chance,
und ich machs mir viel zu leicht.
Ich könnt so kotzen weil ich weiß,
dass alle Zeit der Welt nicht reicht
Du hättest mir noch viel zu geben,
das was uns beide heilt.
Wir wären ewig, wären groß,
bis auf die Kleinigkeit.
Wenn ich anders könnte, würde ich mit dir fliegen
Wenn ich anders könnte. würde ich dich lieben

4x
Am
Und ich weiß,
                     Am/C
dass alles in dir schreit,
                           C
weil gar nichts von mir bleibt.
           G
Ich verschwinde

F     Am
F               Am
Ich verschwinde
F               Am
Ich verschwinde
G
Ich verschwinde

e|-0-0-0-0-0-0-0-0-0-0-0-0-0-0-0-0--3-3-3-1-1-0-0-1-1-1-0-0-0-0-0--|
B|-3-3-3-1-1-1-1-1-0-0-0-1-1-1-1-1--3-3-3-3-3-3-3-3-3-3-3-3-3-3-3--|
G|-2-2-2-2-2-2-2-2-0-0-0-2-2-2-2-2--2-2-2-2-2-2-2-2-2-2-2-2-2-2-2--|
D|-2-2-2-2-2-2-2-2-2-2-2-2-2-2-2-2--0-0-0-0-0-0-0-0-0-0-0-0-0-0-0--|
A|-0-0-0-0-0-0-0-0-0-0-0-0-0-0-0-0---------------------------------|
E|-0-0-0-0-0-0-0-0-0-0-0-0-0-0-0-0---------------------------------|



Es ist nicht perfekt, aber wenn man es solo laos ohne das Lied spielt, klingt es ganz ok^^
Tap to rate this tab
# A B C D E F G H I J K L M N O P Q R S T U V W X Y Z