Song name
# A B C D E F G H I J K L M N O P Q R S T U V W X Y Z

Juli - Geile Zeit tab

This song is usually played with two guitars but I made it that way, so it's possible to play it with one.


INTRO


     Am
|-------------|
|--------0--1-|
|------2------|  x2
|----2--------|
|--0----------|
|-------------|


VERSE

     Am            G      F   
|---------------|-------------------|
|--------0--1---|-----------------1-|  Just repeat until the first bridge.
|------2--------|-------------------|  After this you repeat it one more
|----2----------|------0------------|  time until the second bridge.
|--0------------|----2---------3----|  But in the second verse is only
|-------------0-|--3------1---------|  one bridge!


BRIDGE

|--------------|------------|---------------|
|--------------|------------|---------------|
|-------2------|------2-----|-------2-------|
|-----2---2----|----2---2---|-----2---2-----|
|--------------|------------|---------------|
|--2---------1-|------------|--2----------1-|


CHORUS

   Am            C                         G             F
              
|--0-0-0-0-0-0-0-0--|----0-0-0-0-0-0-0--|--3-3-3-3-3-3-3-1--|
|--1-1-1-1-1-1-1-1--|----1-1-1-1-1-1-1--|--3-3-3-3-3-3-3-1--|
|--2-2-2-2-2-2-2-0--|----0-0-0-0-0-0-0--|--0-0-0-0-0-0-0-2--|
|--2-2-2-2-2-2-2-2--|----2-2-2-2-2-2-2--|--0-0-0-0-0-0-0-3--|
|--0-0-0-0-0-0-0-3--|----3-3-3-3-3-3-3--|--2-2-2-2-2-2-2-3--|
|-------------------|-------------------|--3-3-3-3-3-3-3-1--|


|----1-1-1-1-1-1-1--|
|----1-1-1-1-1-1-1--|
|----2-2-2-2-2-2-2--|
|----3-3-3-3-3-3-3--|
|----3-3-3-3-3-3-3--|
|----1-1-1-1-1-1-1--|



   Am            C                        Em             F

|--0-0-0-0-0-0-0-0--|----0-0-0-0-0-0-0--|--0-0-0-0-0-0-0-1--|
|--1-1-1-1-1-1-1-1--|----1-1-1-1-1-1-1--|--0-0-0-0-0-0-0-1--|
|--2-2-2-2-2-2-2-0--|----0-0-0-0-0-0-0--|--0-0-0-0-0-0-0-2--|
|--2-2-2-2-2-2-2-2--|----2-2-2-2-2-2-2--|--2-2-2-2-2-2-2-3--|
|--0-0-0-0-0-0-0-3--|----3-3-3-3-3-3-3--|--2-2-2-2-2-2-2-3--|
|-------------------|-------------------|--0-0-0-0-0-0-0-1--|


|----1-1-1-1-1-1-1--|
|----1-1-1-1-1-1-1--|
|----2-2-2-2-2-2-2--|
|----3-3-3-3-3-3-3--|
|----3-3-3-3-3-3-3--|
|----1-1-1-1-1-1-1--|



  Am            C                         G             F
              
|--0-0-0-0-0-0-0-0--|----0-0-0-0-0-0-0--|--3-3-3-3-3-3-3-1--|
|--1-1-1-1-1-1-1-1--|----1-1-1-1-1-1-1--|--3-3-3-3-3-3-3-1--|
|--2-2-2-2-2-2-2-0--|----0-0-0-0-0-0-0--|--0-0-0-0-0-0-0-2--|
|--2-2-2-2-2-2-2-2--|----2-2-2-2-2-2-2--|--0-0-0-0-0-0-0-3--|
|--0-0-0-0-0-0-0-3--|----3-3-3-3-3-3-3--|--2-2-2-2-2-2-2-3--|
|-------------------|-------------------|--3-3-3-3-3-3-3-1--|




OTHER PART

   F                   Am                  C

|--1-1-1-1-1-1-1-1--|--0-0-0-0-0-0-0-0--|--0-0-0-0-0-0-0-0--|
|--1-1-1-1-1-1-1-1--|--1-1-1-1-1-1-1-1--|--1-1-1-1-1-1-1-1--|
|--2-2-2-2-2-2-2-2--|--2-2-2-2-2-2-2-2--|--0-0-0-0-0-0-0-0--|
|--3-3-3-3-3-3-3-3--|--2-2-2-2-2-2-2-2--|--2-2-2-2-2-2-2-2--|
|--3-3-3-3-3-3-3-3--|--0-0-0-0-0-0-0-0--|--3-3-3-3-3-3-3-3--|
|--1-1-1-1-1-1-1-1--|-------------------|-------------------|

   Dm

|--1-1-1-1-1-1-1-1--|
|--3-3-3-3-3-3-3-3--|
|--2-2-2-2-2-2-2-2--|
|--0-0-0-0-0-0-0-0--|  x 3
|-------------------|
|-------------------|



Very nice song! Have fun!



Tap to rate this tab
# A B C D E F G H I J K L M N O P Q R S T U V W X Y Z