Song name
# A B C D E F G H I J K L M N O P Q R S T U V W X Y Z

Juli - Ein Neuer Tag tab

-------------------------------------------------------------------------------
			     Ein neuer Tag - Juli
-------------------------------------------------------------------------------
Tabbed by:xchris1991
Email:christian.schroeder1991@gmx.de

Tuning:standard


Guit1:

Intro/Verse:

e|---------------------------------------------------------------------------|
B|---------------------------------------------------------------------------|
G|---------------------------------------------------------------------------|4x
D|-------10-10--------10-10---------6-6--------3-3---------------------------|
A|---------------------------------------------------------------------------|
E|--8-8---------8-8----------8\4-4------4\1-1-------4/-----------------------|


Pre-chorus:

e|---------------------------------------------------------------------------|
B|---------------------------------------------------------------------------|
G|---------------------------------------------------------------------------|3x
D|-----6-6-------3-3-------10-10--------13-13--------------------------------|
A|---------------------------------------------------------------------------|
E|--4-------4\1-------1/8---------8/11---------------------------------------|


e|---------------------------------------------------------------------------|
B|---------------------------------------------------------------------------|
G|---------------------------------------------------------------------------|1x
D|-----6-6-----6-6-------3-3------3-3----------------------------------------|
A|---------------------------------------------------------------------------|
E|--4-------4---------1--------1---------------------------------------------|



Chorus:


Guit2:

    C                           G#           F             

e|--5----------------------------4------------1------------------------------|
B|--3----------------------------4------------1------------------------------|
G|--3----------------------------5------------2------------------------------|4x
D|--3----------------------------6------------3------------------------------|
A|--5----------------------------6------------3------------------------------|
E|-------------------------------5------------1------------------------------|

--> And then the 1.Guitar enters with the intro/verse riff


2.Verse:

e|-----5----------------------------4------------1---------------------------|
B|-----3----------------------------4------------1---------------------------|
G|-----3----------------------------5------------2---------------------------|
D|-----3----------------------------6------------3---------------------------|
A|--5-------------------------------6------------3---------------------------|
E|-------------------------------5------------1------------------------------|

And then again chorus

| /  slide up
| \  slide down
===============================================================================

Tap to rate this tab
# A B C D E F G H I J K L M N O P Q R S T U V W X Y Z