Song name
# A B C D E F G H I J K L M N O P Q R S T U V W X Y Z

Julia Brown - Library chords

Fingerpicking arpeggios thing:

E|-------------------5-------5-----|
B|---------7-----------7-------7---|
G|-----7-----7---7-7-----7-6-----6-|
D|-5-5---5-----5-------------------|
A|---------------------------------|
E|---------------------------------|

E|---------5-------------3-3-2-2-|
B|-----3-----3-------2-2---------|
G|-4-4---4-----4-2-2-------------|
D|-------------------------------|
A|-------------------------------|
E|-------------------------------|

Chords:
xx577x x7x77x x5x77x x4x67x

Lyrics:

i was in the library
i heard your name in my ear
my friends blame ghosts
when i went outside
the sky was turning black.
i saw you in the library
even though you’re two states away
my friends blame ghosts
when i went outside
it was just beginning to rain.
driving home i wondered
when you go to sleep do you dream of me?
Tap to rate this tab
 
# A B C D E F G H I J K L M N O P Q R S T U V W X Y Z