Song name
# A B C D E F G H I J K L M N O P Q R S T U V W X Y Z

Julia Brown - Falling In Love tab

First tab, sounds right to me.
strummed part
e|--(x4)--(x4)--(x4)-----|
B|--(x4)--(x4)--(x4)-----|
G|--(x4)--(x4)--(x4)-----|
D|--(x4)-2(x4)-4(x4)-9---|
A|-2(x4)-3(x4)-5(x4)-10--|
E|-3(x4)--(x4)--(x4)-----|
                     ^ let ring
picking part
e|----------------------|
B|----------------------|
G|----------------------|
D|--10-10-12-12-12-12---|
A|-12-12-10-10-8-8------|
E|-------------------8--|
                    ^ let ring
strummed part when saying "oh my god"
e|-----------|
B|-----------|
G|-----------|
D|---2-4-9---|
A|-2-3-5-10--|
E|-3---------|
let each strum ring
Tap to rate this tab
 
# A B C D E F G H I J K L M N O P Q R S T U V W X Y Z