Song name
# A B C D E F G H I J K L M N O P Q R S T U V W X Y Z

Julia Nunes - Pen To Paper tab

-------------------------------------------------------------------------------
			     Pen to Paper - Julia Nunes
-------------------------------------------------------------------------------
Tabbed by: D.J.
Email: djamanhoward@yahoo.com


Tabbed as heard on video --> http://www.youtube.com/watch?v=aHJ_FLJMe6M

I heard this song on a YouTube and couldn't find tabs so I tried to replicate as best as 
can and I think I got it. It's my first tab so tell me what you think.

Tuning: Standard

Intro/Verse:
e|---00--22--55--7-7---00--22--55--7-7---00--22--55--7-7---00--22--55--7-7--|
B|---00--22--55--7-7---00--22--55--7-7---00--22--55--7-7---00--22--55--7-7--|
G|---11--22--66--8-8---11--22--66--8-8---11--22--66--8-8---11--22--66--8-8--|
D|---22--44--77--9-9---22--44--77--9-9---22--44--77--9-9---22--44--77--9-9--|
A|---22--44--77--9-9---22--44--77--9-9---22--44--77--9-9---22--44--77--9-9--|
E|---00--22--55--7-7---00--22--55--7-7---00--22--55--7-7---00--22--55--7-7--|

Chorus:
e|---44--00--77--00----44--00--77--00----44--00--77--00----44--00--77--00---|
B|---55--00--77--00----55--00--77--00----55--00--77--00----55--00--77--00---|
G|---66--66--99--88----66--66--99--88----66--66--99--88----66--66--99--88---|
D|---66--77--99--99----66--77--99--99----66--77--99--99----66--77--99--99---|
A|---44--77--77--99----44--77--77--99----44--77--77--99----44--77--77--99---|
E|---44--xx--77--xx----44--xx--77--xx----44--xx--77--xx----44--xx--77--xx---|
(can play the muted "E" open)

************************************

| /   slide up
| \   slide down
| h   hammer-on
| p   pull-off
| ~   vibrato
| +   harmonic
| x   Mute note
| b   Bend
| pb  Pre-bend
| br  Bend release
| pbr Pre-bend release
| brb Bend release bend

************************************
Tap to rate this tab
 
# A B C D E F G H I J K L M N O P Q R S T U V W X Y Z