Song name
# A B C D E F G H I J K L M N O P Q R S T U V W X Y Z

Julia Stone - The Memory Machine tab

"The Memory Machine"
Julia Stone

E
|---------------------------------------------------------------|
|----------0--------------0-------------------------------------|
|----------1--------------1-------------------------------------|
|-----2--------2----2--------2----------------------------------|
|---------------------------------------------------------------|
|--0---------------0--------------0-----------------------------| x2

A
|------------------------------------------------------|
|-----------2---------------2--------------------------|
|-----------2---------------2--------------------------|
|------2--------2------2--------2----------------------|
|--0----------------0----------------0-----------------|
|------------------------------------------------------| x2

That's the whole song
Tap to rate this tab
 
# A B C D E F G H I J K L M N O P Q R S T U V W X Y Z