Song name
# A B C D E F G H I J K L M N O P Q R S T U V W X Y Z

Julia - Without A Sound tab

So this is my first tab...
Have found an tab of the song on the website of Julia, but there were some mistakes in 
i think. Hope i got it right now.

Verse : 6 times
Es|------------------------------------------------------------------------|
Bb|------------------------------------------------------------------------|
F#|---------7----5---------------------------------------------------------|
C#|------8----8----5------8------------------------------------------------|
G#|---------------------6---6---8------------------------------------------|
C#|------------------------------------------------------------------------|

PreChorus: 4 times
Es|------------------------------------------------------------------------|
Bb|------------------------------------------------------------------------|
F#|------7-7--5-5----------------------------------------------------------|
C#|--------------------8--8-/-7-7------------------------------------------|
G#|------------------------------------------------------------------------|
C#|------------------------------------------------------------------------|

Chorus: 4 times
Es|------------------------------------------------------------------------|
Bb|------------------------------------------------------------------------|
F#|-----------333/5555555--------------------------------------------------|
C#|5555-1111--333/5555555--------------------------------------------------|
G#|5555-1111--111/3333333--------------------------------------------------|
C#|5555-1111---------------------------------------------------------------|

Verse : 6 times
Es|------------------------------------------------------------------------|
Bb|------------------------------------------------------------------------|
F#|---------7----5---------------------------------------------------------|
C#|------8----8----5------8------------------------------------------------|
G#|---------------------6---6---8------------------------------------------|
C#|------------------------------------------------------------------------|

Chorus: 4 times
Es|------------------------------------------------------------------------|
Bb|------------------------------------------------------------------------|
F#|-----------333/5555555--------------------------------------------------|
C#|5555-1111--333/5555555--------------------------------------------------|
G#|5555-1111--111/3333333--------------------------------------------------|
C#|5555-1111---------------------------------------------------------------|

Bridge: 2 times
Es|------------------------------------------------------------------------|
Bb|------------------------------------------------------------------------|
F#|----8888-------10101010-------------------------------------------------|
C#|555-8888---111-10101010-------------------------------------------------|
G#|555-6666---111-8-8-8-8--------------------------------------------------|
C#|555--------111----------------------------------------------------------|

Bridge Part 2: 2 times
Es|------------------------------------------------------------------------|
Bb|------------------------------------------------------------------------|
F#|---------7----5---------------------------------------------------------|
C#|------8----8----5------8------------------------------------------------|
G#|---------------------6---6---8------------------------------------------|
C#|------------------------------------------------------------------------|

PreChorus: 2 times
Es|------------------------------------------------------------------------|
Bb|------------------------------------------------------------------------|
F#|------7-7--5-5----------------------------------------------------------|
C#|--------------------8--8-/-7-7------------------------------------------|
G#|------------------------------------------------------------------------|
C#|------------------------------------------------------------------------|

Chorus: 6 times
Es|------------------------------------------------------------------------|
Bb|------------------------------------------------------------------------|
F#|-----------333/5555555--------------------------------------------------|
C#|5555-1111--333/5555555--------------------------------------------------|
G#|5555-1111--111/3333333--------------------------------------------------|
C#|5555-1111---------------------------------------------------------------|

End:
Es|------------------------------------------------------------------------|
Bb|------------------------------------------------------------------------|
F#|------------------------------------------------------------------------|
C#|-1----------------------------------------------------------------------|
G#|-1----------------------------------------------------------------------|
C#|-1----------------------------------------------------------------------|
Tap to rate this tab
# A B C D E F G H I J K L M N O P Q R S T U V W X Y Z