Song name
# A B C D E F G H I J K L M N O P Q R S T U V W X Y Z

Julian Casablancas - Glass tab

-----------------------------------------------------------------
GLASS - Julian Casablancas
-----------------------------------------------------------------
Tabbed by:Frank Truei
Email: Brokensword421@hotmail.com

Tuning:Standard


There is very little guitar in this song.  I have included all the parts I consider 
parts becasue they are very soothing.

1:17 - 1:37
e|---------------------|------------------------|
B|----------16---------|------------------------|
G|------17-----17----17|----------15-14-15------| x4
D|---17-----------17---|-------17----------17---|
A|15-------------------|----17----------------17|
E|---------------------|-15---------------------|

1:37 - 2:08
e|-----------------------|
B|15-15-15-15-15-15-15-15|  (do this over and over again)
G|-----------------------|
D|-----------------------|
A|-----------------------|
E|-----------------------|

-Nothing til 2:41 - 2:51

e|---------------------|------------------------|
B|----------16---------|------------------------|
G|------17-----17----17|----------15-14-15------|
D|---17-----------17---|-------17----------17---|  x2
A|15-------------------|----17----------------17|
E|---------------------|-15---------------------|

2:51 - 3:22
e|-----------------------|
B|15-15-15-15-15-15-15-15|  (do this over and over again) until
G|-----------------------|    the end where it goes 15/13 on the
D|-----------------------|      B string to jump into the solo)
A|-----------------------|
E|-----------------------|

SOLO: 3:22 - 3:52
e|------------------------------------------------------------------|
B|------------------------------------------------------------------|
G|----14b15-15-14-12-14-12----12----------------------12------------|
D|/12----------------------15----15-13-15-13-12-13-15----15p13p12---|
A|----------------------------------------------------------------15|
E|------------------------------------------------------------------|

e|------------------------------------------------------------------|
B|------------------------------------------------------------------|
G|/13b14--17-15-14-15-14----14--------------------------------------|
D|-----------------------17----17-15-17-15-13----------12-----------|
A|--------------------------------------------12h13h15----13-12-13--|
E|------------------------------------------------------------------|

e|-------------------------------------------------------------------|
B|-------------------------------------------------------------------|
G|-------------------------------------------------------------------|
D|/16b17--15-13-12-13-12----12------------------------------------10^|
A|-----------------------15----15-13-15-13-12-13p12p10-12p10p8-6-----|
E|-------------------------------------------------------------------|

e|-----------------------------------------------|
B|-----------------------------------------------|
G|19----19----17----15----15----15----15----15---|
D|---16----16----17----17----17----17----17----17|
A|-----------------------------------------------|
E|-----------------------------------------------|

e|-----------------------------------------------|
B|-----------------------------------------------|
G|17----17----15----14----14----14----14----14---|
D|---14----14----14----15----15----15----15----15|
A|-----------------------------------------------|
E|-----------------------------------------------|

e|-----------------------------------------------|
B|-----------------------------------------------|
G|15----15----14----12----12----12----12----12---|
D|---12----12----12----13----13----13----13----13|
A|-----------------------------------------------|
E|-----------------------------------------------|

e|---------------------------------------------------------------|
B|---------------------------------------------------------------|
G|14----14----12----11----11----11----11----11-------------------|
D|---10----10----10----12----12----12----12----12/17-------------|
A|---------------------------------------------------------------|
E|---------------------------------------------------------------|

4:22 - 4:34
e|---------------------|------------------------|
B|----------16---------|------------------------|
G|------17-----17----17|----------15-14-15------|
D|---17-----------17---|-------17----------17---|
A|15-------------------|----17----------------17|
E|---------------------|-15---------------------|

e|---------------------|------------------------|
B|----------16---------|-------13-------13------|
G|------17-----17----17|----14-------14----14---|
D|---17-----------17---|-15-------13----------15|
A|15-------------------|------------------------|
E|---------------------|------------------------|

e|------------11-13-11-10------------------------|
B|------11----------------15-15-15-15-15-15-15-15|
G|---12----12------------------------------------|
D|12---------------------------------------------|
A|-----------------------------------------------|
E|-----------------------------------------------|

Then 15's to the end of the song ob the B string.
Tap to rate this tab
 
# A B C D E F G H I J K L M N O P Q R S T U V W X Y Z