Song name
# A B C D E F G H I J K L M N O P Q R S T U V W X Y Z

Julian Casablancas - Out Of The Blue chords

Highlighted       Show chord diagrams
    E A D G B e
Db: x 4 6 6 6 4
Ab: 4 6 6 5 4 4
Eb: x 6 8 8 8 6
Fm: x 8 10 10 10 8


Intro: Ab


Db
Somewhere along the way my hopefulness turned to sadness
Ab
Somewhere along the way my sadness turned to bitterness
Eb
Somewhere along the way my bitterness turned to anger
Ab
Somewhere along the way my anger turned to vengeance


    Db
And the ones that I make pay

Are never the ones who deserve it
    Ab
and the ones who deserve it they'll never understand it
    Eb
Yes, I know I am going to hell in a purple basket
    Ab
At least I will be in another world, while you're pissing on my casket


Ab                  Db Fm Eb
How could you be Oh
               Ab   Db Fm Eb
So perfect for me? Oh
               Ab   Db Fm Eb
Why can't you ignore Oh
               Ab   Db Fm Eb
The things I did before?


Db
Somewhere along the way exacting vengeance gave excitement
Ab
Somewhere along the way that excitement turned to pleasure
Eb
Somewhere along the way that pleasure turned to madness
Ab
Sooner or later that kind of madness turns into pain


Db
And the ones that I made pay were never ones who deserved it
Ab
Those who helped me along the way, I smacked them as I thanked them
Eb
Yes, I know I am going to hell in a leather jacket
Ab
At least I will be in another world, while you're pissing on my casket

All that I can do now is sing a song of faded glory
And all you got to do is sit there look great and make them horny
Together we will sing songs and tell exaggerated stories
About the way we feel today, and tonight and in the morning

(There are two separate guitars here, but they play mostly the same notes. And I'm too 
to tab them both)

e|-------------------------------|------------------------------------------|
B|-------6-----------6---4-------|--------4-----------4---------------------|
G|-6---6---6---6---6---6-----6---|--5---5---5---5---5---5-------------------|
D|---6-------6---6---------6-----|----6-------6---6-------6-----------------|
A|-------------------------------|------------------------------------------|
E|-------------------------------|------------------------------------------|


e|-------------------------------|------------------------------------------|
B|-------4-----------4-----------|---------9-------------9H11P9-------------|
G|-3---3---3---3---3---6-3-------|--8----8---8----8----8--------8-----------|
D|---5-------5---5---------5-----|----10-------10---10------------10--------|
A|-------------------------------|------------------------------------------|
E|-------------------------------|------------------------------------------|

Ab                  Db Fm Eb
How could you be Oh
               Ab   Db Fm Eb
So perfect for me? Oh
               Ab   Db Fm Eb
Why can't you ignore Oh
               Ab   Db Fm Eb
The things I did before?


Eb
And take all your fears
Eb
And pretend they're all true
Eb
And take all your plans
Eb
And pretend they fell through
Eb                    Ab     Db Fm Eb
And that's what it's like, Oh
                 Ab             Db      Fm      Eb
That's what it's like for most people in this world


                Ab    Db Fm Eb
The rich or the poor Oh
           Ab    Db Fm Db
Muslims or Jews Oh
               Ab        Db Fm Eb
When roles are reversed Oh
             Ab   Db   Fm Eb
Opinions are too No, oh oh

                         Ab   Db Fm Eb
That's all I'm gonna say now
                                     Ab   Db Fm Eb
Before they come knockin' on my door now

Outro: Ab Db Fm Eb
Tap to rate this tab
# A B C D E F G H I J K L M N O P Q R S T U V W X Y Z