Song name
# A B C D E F G H I J K L M N O P Q R S T U V W X Y Z

Julian Casablancas - 4 Chords Of The Apocalypse tab

A 2 part guitar solo in the key of F.

Part 1:

s^13--13--13-13-13--------------------------------17p16h17--13p12h13-|
--------------------15--13--15s^17--17-17-17-15----------------------|
---------------------------------------------------------------------|
---------------------------------------------------------------------|
---------------------------------------------------------------------|
---------------------------------------------------------------------|

------------13----------------13-------------------------------------|
-15p14h15------16----------------------------------------------------|
------------------15b16b15p13----15b16b15p13-14-15-16-15b17-17-17-17-|
---------------------------------------------------------------------|
---------------------------------------------------------------------|
---------------------------------------------------------------------|

---------------------------------------------13----17h13--18------17-|
----------------------13----------------13h15--15--------------------|
17-17-----------12h14--------------12h14--------------------19s17----|
----------12h15---------------12h15----------------------------------|
-------15----------------13h15---------------------------------------|
---------------------------------------------------------------------|

-------15------------------------------------------------------------|
---------------------------------------------------------------------|
17s15------15b17--15b17-15-14-14b15-14b15-14--12-14b15-14b15-14-12---|
---------------------------------------------------------------------|
---------------------------------------------------------------------|
---------------------------------------------------------------------|

--------------------------------|
--------------------------------|
14b15~~~~~~~~~~~~~~~~~~~~~~~~~~~|
--------------------------------|
--------------------------------|
--------------------------------|

Part 2:

---------------------------------------------------------------------|
---------------------------------------------18p17h18--15p14h15------|
s17--17-17-17-17--15-13h14-s17-17-17-17-15---------------------------|
---------------------------------------------------------------------|
---------------------------------------------------------------------|
---------------------------------------------------------------------|

------------13----------------13-------------------------------------|
---------------16----------------------------------------------------|
14p13h14----------15b16b15p13----15b16b15p13----12-13-15-13----15-13-|
---------------------------------------------15-------------15-------|
---------------------------------------------------------------------|
---------------------------------------------------------------------|

------------------------------------------13-----17p13--18-----17----|
------------------13------------------------15-----------------------|
------------12h14-------------------14h17-----------------19s17------|
15----12h15--------------------15h17---------------------------------|
---15---------------------15h17--------------------------------------|
---------------------15h17-------------------------------------------|

------15--------------------------------------------------------------|
----------------------------------------------------------------------|
17s15-----14-14-14h15--14s7---s12-10h12-10---9--10b12~~~~~~~~~~~~~~~~-|
----------------------------------------------------------------------|
----------------------------------------------------------------------|
----------------------------------------------------------------------|
Tap to rate this tab
 
# A B C D E F G H I J K L M N O P Q R S T U V W X Y Z