Song name
# A B C D E F G H I J K L M N O P Q R S T U V W X Y Z

Julian Casablancas - Out Of The Blue tab

Intro
p.m

e|---------------------------|
B|---------------------------|
G|---------------------------|
D|--6--6--6--6--6--6---------|
A|--4--4--4--4--4--4---------|
E|---------------------------|
till the singing comes in

verse:

Somewhere along the way....
figure out the rhythm

e|--------------------------------------------------------------------------|
B|--------------------------------------------------------------------------|
G|--------------------------------------------------------------------------|
D|-6-6-6-6-6-6-6-6-6-6-6-------------------------8-8-8-8-8-8-8-8-8-8-8-8-8--|
A|-4-4-4-4-4-4-4-4-4-4-4----6-6-6-6-6-6-6-6-6----6-6-6-6-6-6-6-6-6-6-6-6-6--|
6|--------------------------4-4-4-4-4-4-4-4-4-------------------------------|


e|--------------------------------------------|
B|--------------------------------------------|
G|--------------------------------------------|
D|--------------------------------------------|
A|-6-6-6-6-6-6-6-6-6-6-6-6-6-6-6-6-6-6--------|    and repeat again
E|-4-4-4-4-4-4-4-4-4-4-4-4-4-4-4-4-4-4--------|

Chorus
How could you be....

e|---------------------------------------------------------------------|
B|---------------------------------------------------------------------|
G----------------------------------------------------------------------|
D|---------------------6-6-6-6-6-6-6------3-3-3-3-3---1-1-1-1-1-1-1-1--|
A|-6-6-6-6-6-6-6-6-----4-4-4-4-4-4-4------3-3-3-3-3---1-1-1-1-1-1-1-1--|
E|-4-4-4-4-4-4-4-4-----------------------------------------------------|

or


e|--------------------------------------------------------------------|
B|--------------------------------------------------------------------|
G---------------------------------------------------------------------|
D|---------------------6-6-6-6-6-6-6---3-3-3-3-3--8-8-8-8-8-8-8-8-8-8-|
A|-6-6-6-6-6-6-6-6-----4-4-4-4-4-4-4---3-3-3-3-3--6-6-6-6-6-6-6-6-6-6-|
E|-4-4-4-4-4-4-4-4----------------------------------------------------|

and thats it for the rest of the song
same thing over and over again
just figure out the rhythm and timing
very easy
. enjoy
Tap to rate this tab
# A B C D E F G H I J K L M N O P Q R S T U V W X Y Z