Song name
# A B C D E F G H I J K L M N O P Q R S T U V W X Y Z

Julian Casablancas - River Of Brakelights tab

-----------------------------------------------------------------------------
			     River of Brakelights  Julian Casablancas
-----------------------------------------------------------------------------

Tabbed by: Chris Warner 6/2/10
Email: cwarner3000@gmail.com

Tuning: Standard tuning but Capo 1st fret

Intro

e|---------------------------------------------------------------------------|
B|---------------------------------------------------------------------------|
G|---------------1-2---------------------------------------------------------|
D|---2-1-----2-1-------------------------------------------------------------|
A|--0------0-------------repeat once-----------------------------------------|
E|---------------------------------------------------------------------------|

e|---------------------------------------------------------------------------|
B|--------1---------------1-------------1---------------0--------------------|
G|------2---2-1-2-------2---2-1-------2---2-1-2-------2---2-1----------------|
D|----2---------------2-------------2---------------2------------------------|
A|--0---------------0-------------0---------------0--------------------------|
E|---------------------------------------------------------------------------|

e|-----------------------------------------------------------------------------|
B|-----------------------------------------------------------------------------|
G|--------7-----------7--------------------------------------------------------|
D|------8---8-------8---8------------------------------------------------------|
A|--0-7-------7--0-7-------7-repeat once---------------------------------------|
E|-----------------------------------------------------------------------------|
We might be in for a late night

e|---------------------------------------------------------------------------|
B|---------------------------------------------------------------------------|
G|------0-3-0-------0-3-0----------------------------------------------------|
D|----0-------0---0-------0--------------------------------------------------|
A|-0-1-----------1-----------repeat once-------------------------------------|
E|---------------------------------------------------------------------------|
Stuck in a lava full of brake lights

e|---------------------------------------------------------------------------|
B|---------------------------------------------------------------------------|
G|----7-----7----7-----7-----------------------------------------------------|
D|--0---4h6----0---4h6---6---------------------------------------------------|
A|--------------------------repeat once--------------------------------------|
E|---------------------------------------------------------------------------|
Set back
e|---------------------------------------------------------------------------|
B|---------------------------------------------------------------------------|
G|----6-----6----6-----6-----------------------------------------------------|
D|------6h7--------6h7---7---------------------------------------------------|
A|--0----------0--------------repeat once------------------------------------|
E|---------------------------------------------------------------------------|
Oh-ohh

e|-----------------------------------------------------------------------3---|
B|-----------------------------------------------------------------------4---|
G|-----3-------3--------3-------3----------------------------------------5---|
D|--------4h5--------------4h5-----5p4-----------------------------------5---|
A|--3---------------3-------------------repeat once then this chord x 16-3---|
E|---------------------------------------------------------------------------|
I shop therefore I am the cause

      Cmin      G#      F#      G7
e|-----3--------4-------2--------3-------------------------------------------|
B|-----4--------4-------2--------6-------------------------------------------|
G|-----5--------5-------5--------4-------------------------------------------|
D|-----5--------6-------4--------3-------------------------------------------|
A|-----3--------6-------4--------5-------------------------------------------|
E|--------------4-------2--------3-------------------------------------------|
Getting the hang of it

      Bmin      G       D        A
e|--------------3-------3--------0-------------------------------------------|
B|----3---------3-------2--------2-------------------------------------------|
G|----4---------0-------3--------2-------------------------------------------|
D|----4---------0-------0--------2-------------------------------------------|
A|----2---------2----------------0-------------------------------------------|
E|--------------3--------------------repeat x 4------------------------------|
Im at your feet

Some solo I have no idea how to play

Then back to
e|---------------------------------------------------------------------------|
B|---------------------------------------------------------------------------|
G|--------7-----------7------------------------------------------------------|
D|------8---8-------8---8----------------------------------------------------|
A|--0-7-------7--0-7-------7-repeat once-------------------------------------|
E|---------------------------------------------------------------------------|
Robot camp for kids who hate sports

e|---------------------------------------------------------------------------|
B|---------------------------------------------------------------------------|
G|------0-3-0-------0-3-0----------------------------------------------------|
D|----0-------0---0-------0--------------------------------------------------|
A|-0-1-----------1-----------repeat once-------------------------------------|
E|---------------------------------------------------------------------------|
Mothers crying at the airport

e|---------------------------------------------------------------------------|
B|---------------------------------------------------------------------------|
G|----7-----7----7-----7-----------------------------------------------------|
D|--0---4h6----0---4h6---6---------------------------------------------------|
A|--------------------------repeat once--------------------------------------|
E|---------------------------------------------------------------------------|
Set back
e|---------------------------------------------------------------------------|
B|---------------------------------------------------------------------------|
G|----6-----6----6-----6-----------------------------------------------------|
D|------6h7--------6h7---7---------------------------------------------------|
A|--0----------0--------------repeat once------------------------------------|
E|---------------------------------------------------------------------------|
Oh-ohh

e|-----------------------------------------------------------------------3---|
B|-----------------------------------------------------------------------4---|
G|-----3-------3--------3-------3----------------------------------------5---|
D|--------4h5--------------4h5-----5p4-----------------------------------5---|
A|--3---------------3-------------------repeat once then this chord x 16-3---|
E|---------------------------------------------------------------------------|
We were born waiting in line


     Emin      C      Bb      B
e|----0--------0-------------------------------------------------------------|
B|----0--------1------3-------4----------------------------------------------|
G|----0--------0------3-------4----------------------------------------------|
D|----2--------2------3-------4----------------------------------------------|
A|----2--------3------1-------2----------------------------------------------|
E|----0----------------------------------------------------------------------|
Getting the hang of it


     Eb min     B      F#      Db
e|----6----------------2-----------------------------------------------------|
B|----7---------4------2-------6---------------------------------------------|
G|----8---------4------3-------6---------------------------------------------|
D|----8---------4------4-------6---------------------------------------------|
A|----6---------2------4-------4-----------repeat x 5------------------------|
E|---------------------2-----------------------------------------------------|
Like batteries we die, like rivers we dry

Nothing stands still

This was my favorite song on one of my favorite albums

Dont forget to capo the first fret

Lyrics
We might be in for a late night
Stuck in a lava flow of brake lights
I can hear a rattling bass drum
Driving back to where it came from

Set back, Ohh
I shop, therefore I am the cause
Protect me from what I was

Getting the hang of it (8x)
Timing is everything (6x)

I'm at your feet
Where critters meet
Who should be asleep and not
Crossing roads or highways
In the afterlife of supercities,
Rapidly devouring it's outskirts
It's neon octopus arm
Redecorating late at night
Robot game for kids who hate sports
Mothers crying at the airport
Fighting the dreams you left behind to-do
Waving goodbye, your young heart cries for you

Set back, Ohh
You're finding it hard
To get very far

We were born waiting in life
Grabbing the future by the eyes

Getting the hang of it, Getting the hang of it
Timing is everything, Timing is everything
Getting the hang of it, Timing is everything
Getting the hang of it, Timing is everything

Timing the hang of it
Getting is everything
Getting the time of it
Everything hanging is
Hanging the getting of
Timing the everything
Like batteries we die
Like rivers we dry
We fuel and recharge the humans and cars
My fun, my sun
Be my homework done
Where did you go?
You were my ride home

Is that what we want?
Is everything shot?
Is that what you ask for?
'Cause that's what we got
Nothing stands still
Nothing stands still


************************************

| /   slide up
| \   slide down
| h   hammer-on
| p   pull-off
| ~   vibrato
| +   harmonic
| x   Mute note
| b   Bend
| pb  Pre-bend
| br  Bend release
| pbr Pre-bend release
| brb Bend release bend

************************************
Tap to rate this tab
 
# A B C D E F G H I J K L M N O P Q R S T U V W X Y Z