Song name
# A B C D E F G H I J K L M N O P Q R S T U V W X Y Z

Julian Felipe - Lupang Hinirang tab

Tabbed by: Distinction
Email: zalduamark@yahoo.com

Tuning:standard

e|-3--2--5--3------5--7--8--7--5--7--3----3--2--5--3------5--7--8--7--5--3---|
B|-------------3--------------------------------------3----------------------|
G|---------------------------------------------------------------------------|
D|---------------------------------------------------------------------------|
A|---------------------------------------------------------------------------|
E|---------------------------------------------------------------------------|

e|-3--2--5--3------5--7--8--7--5--7--3----3--2--5--3------5--7--8--7--5--3---|
B|-------------3--------------------------------------3----------------------|
G|---------------------------------------------------------------------------|
D|---------------------------------------------------------------------------|
A|---------------------------------------------------------------------------|
E|---------------------------------------------------------------------------|

e|-3--2--3--5--5--------5--5--------7--8--10--12--10-------------------------|
B|----------------3--3--------3--3-------------------------------------------|
G|---------------------------------------------------------------------------|
D|---------------------------------------------------------------------------|
A|---------------------------------------------------------------------------|
E|---------------------------------------------------------------------------|

e|-3--2--3--5--5--------5--5--------7--8--7--5--7--5--3----------------------|
B|----------------3--3--------3--3-------------------------------------------|
G|---------------------------------------------------------------------------|
D|---------------------------------------------------------------------------|
A|---------------------------------------------------------------------------|
E|---------------------------------------------------------------------------|

e|-3--2--3--5--5--------5--5--------7--8--10--12--10-------------------------|
B|----------------3--3--------3--3-------------------------------------------|
G|---------------------------------------------------------------------------|
D|---------------------------------------------------------------------------|
A|---------------------------------------------------------------------------|
E|---------------------------------------------------------------------------|

e|-3--2--3--5--5--------5--5--------7--8--7--5--7--5--3----------------------|
B|----------------3--3--------3--3-------------------------------------------|
G|---------------------------------------------------------------------------|
D|---------------------------------------------------------------------------|
A|---------------------------------------------------------------------------|
E|---------------------------------------------------------------------------|

e|-3--2--3--8--8--10--10----12--10--8--10--12--------------------------------|
B|---------------------------------------------------------------------------|
G|---------------------------------------------------------------------------|
D|---------------------------------------------------------------------------|
A|---------------------------------------------------------------------------|
E|---------------------------------------------------------------------------|

e|-13--12--10--12--8--10--7--7--8--------------------------------------------|
B|---------------------------------------------------------------------------|
G|---------------------------------------------------------------------------|
D|---------------------------------------------------------------------------|
A|---------------------------------------------------------------------------|
E|---------------------------------------------------------------------------|

e|-3--2--3--8--8--10--10----12--10--8--10--12--------------------------------|
B|---------------------------------------------------------------------------|
G|---------------------------------------------------------------------------|
D|---------------------------------------------------------------------------|
A|---------------------------------------------------------------------------|
E|---------------------------------------------------------------------------|

e|-13--12--10--12--8--10--7--7--8--------------------------------------------|
B|---------------------------------------------------------------------------|
G|---------------------------------------------------------------------------|
D|---------------------------------------------------------------------------|
A|---------------------------------------------------------------------------|
E|---------------------------------------------------------------------------|
Tap to rate this tab
 
# A B C D E F G H I J K L M N O P Q R S T U V W X Y Z