Song name
# A B C D E F G H I J K L M N O P Q R S T U V W X Y Z

Julian Lynch - Back tab

website: http://underwaterpeoples.com/2011/07/09/julian-lynch/

just kinda guessin', but this sounds about right
can't really figure out the lyrics, so make up your own!

Capo on the 3rd fret

let the top strings ring as you like, and swing it in 3/4, loosey goosey


intro

e-|--(0)---------------(0)----------------|
B-|--(0)---------------(0)----------------|
G-|---1--1--1--1--1--1--1--1--1--1--1--1--|
E-|---4--4--4--4--4--4--4--4--4--4--4--4--| x4
B-|---0-----------------0-----------------|
E-|---0-----------------0-----------------|


verse riff

e-|--(0)---------------(0)---------------(0)----------------|
B-|---4--4--4--4--4--4--4--4--5--5--7--7--4--4--4--4--4--4--|
G-|---4--4--4--4--4--4--4--4--6--6--8--8--4--4--4--4--4--4--|
E-|---0-----------------0-----------------0-----------------|
B-|---0-----------------0-----------------0-----------------|
E-|---0-----------------0-----------------0-----------------|

e-|--(0)---------------(0)---------------(0)----------------|
B-|---4--4--2--2--0--0--2--2--2--2--2--2-(0)-------2--2-----|
G-|---4--4--3--3--1--1--3--3--3--3--3--3--3--3--3--3--3--3--|
E-|---0-----------------0-----------------2--2--2--------2--|
B-|---0-----------------0-----------------0-----------------|
E-|---0-----------------0-----------------0-----------------|

e-|--(0)---------------(0)----------------|
B-|--(0)---------------(0)----------------|
G-|---1--1--1--1--1--1--1--1--1--1--1--1--|
E-|---4--4--4--4--4--4--4--4--4--4--4--4--|
B-|---0-----------------0-----------------|
E-|---0-----------------0-----------------|

play that 4 times, then strum

e-|---2--------0-----|
B-|---2--------0-----|
G-|---3--------1-----|
E-|---2--------0-----|
B-|---2--------0-----|
E-|---2--------0-----|

repeat that whole thing a couple times.

cool, now you got it!
Tap to rate this tab
 
# A B C D E F G H I J K L M N O P Q R S T U V W X Y Z