Song name
# A B C D E F G H I J K L M N O P Q R S T U V W X Y Z

Julian Nation - Lost Swedish Pen Pals tab

-------------------------------------------------------------------------------
		               Lost Swedish Pen Pals - Julian Nation
-------------------------------------------------------------------------------

Tabbed by:afterthewar
Email:e10005515g@gmail.com

Tuning:Standard

Link to Julian Nation's website 
(ok, its a link to a last.fm page, 
but it gives the label Julian is/was 
signed to at the bottom,and its the closest 
thing to an official website I can find.)-http://www.last.fm/music/julian+nation

Alright, so this song is short (1:24) and sweet. 
There are lyrics, but I am lazy, nobody is going to
look at this tab, and the lyrics are not online. 
So you, nonexistent reader, don't get lyrics. 

There are 4 different "riffs" in the song, the first three 
which are played on the piano, and the last which is played
on the guitar. There is a guitar playing broken chords 
behind the riffs, and I put the chord names on top of 
the riffs. 

The riffs are played like this; riff 1 
is played with riff 2 throughout most of the song,
but at the end of the first verse (type thing),
it switches and after riff 1, riff 3 is played. 
Then riffs 1 and 2 continue doing their thing, 
until the very end, where riff 4 is played once. 

I hope that explanation wasn't too confusing. 
It really is a simple song. Oh and there is 
another instrument (besides guitar and piano),
a glockenspiel I think, which plays in the 
background. But its kind of high, and I don't 
know if it can be played on the guitar, 
so I left it out. The song sounds nice 
this way anyhow. So enjoy.


Riff 1

           C                    E                      Dm               
e|----12--15--12---12------12--15--12----12---------13--17--13----13---------|
B|-13------------13-----12------------12---------15-------------15-----------|
G|---------------------------------------------------------------------------|
D|---------------------------------------------------------------------------|
A|---------------------------------------------------------------------------|
E|---------------------------------------------------------------------------|

Riff 2       
        Dm  
e|------13------------|
B|---15----15------15-|
G|-14----------14-----|
D|--------------------|
A|--------------------|
E|--------------------|

Riff 3
         G                   G7
e|------10-------------------8---------|
B|---12----12----12-------10----10-----|
G|-12---------12-------10-----------10-|
D|-------------------------------------|
A|-------------------------------------|
E|-------------------------------------|

Riff 4
         G                F               G                F         G
e|-----------------7--8-----------------------------7--8---------------------|
B|-----------------------/6-------------------------------/6--5--6---8-------|
G|---------------------------------------------------------------------------|
D|---------------------------------------------------------------------------|
A|---------------------------------------------------------------------------|
E|---------------------------------------------------------------------------|
           F         G          F
e|-7--8------------------7--8-----|
B|--------/6--5--6---8----------6-|
G|--------------------------------|
D|--------------------------------|
A|--------------------------------|
E|--------------------------------|




************************************

| /   slide up
| \   slide down
| h   hammer-on
| p   pull-off
| ~   vibrato
| +   harmonic
| x   Mute note
| b   Bend
| pb  Pre-bend
| br  Bend release
| pbr Pre-bend release
| brb Bend release bend

************************************
Tap to rate this tab
 
# A B C D E F G H I J K L M N O P Q R S T U V W X Y Z