Song name
# A B C D E F G H I J K L M N O P Q R S T U V W X Y Z

Julian Plenti - Cellophane chords

Highlighted       Show chord diagrams
Cmaj
e|----0----|
B|----1----|
G|----0----|
D|----2----|
A|----3----|
E|----x----|

Cmajadd something
e|----3----|
B|----1----|
G|----0----|
D|----2----|
A|----3----|
E|----x----|

Aminor
e|----0----|
B|----1----|
G|----0----|
D|----2----|
A|----2----|
E|----x----|

Aminor add something
e|----3----|
B|----1----|
G|----0----|
D|----2----|
A|----2----|
E|----x----|

F
e|----1----|
B|----1----|
G|----2----|
D|----3----|
A|----3----|
E|----x----|

Eminor add something
e|----0----|
B|----1----|
G|----0----|
D|----2----|
A|----2----|
E|----0----|

C                              Cadd
Just because opinion is fachist
                 Am                           Amadd
Doesn't mean you don't hold on to your beliefs
              C               Cadd
Seven cents a million is magic
              Am
Conquering my feelings don't just conduct

F
They ache in me
        Am              F
and the drain me like a vampire
     Am
They threaten me
         F
And they stop up all my outlets

It's like there's cellophane
        Emadd             Am
Between me and the outside
                      C
And I don't think I'm staying fresh

That's basically it! Hope it helped! Sorry I don't know the chord names for some of them 
just use your pinky.
Listen to the song to completely get the timing right.
Tap to rate this tab
# A B C D E F G H I J K L M N O P Q R S T U V W X Y Z