Song name
# A B C D E F G H I J K L M N O P Q R S T U V W X Y Z

Julian Plenti - No Chance Survival tab

Hi this is my first tab

i hope u like it! :D see ya!

e|----------------------------------------------------------------------------|
B|------------------------------10----8----7-------------7-----------7--------|
G|---11----14----11-------9-----------------------7------------7--------------|
D|12----12----12----12--8---8------8----8----7h9-----9------9-----9-----------|
A|----------------------------------------------------------------------------|
E|----------------------------------------------------------------------------|

e|------------------------------------------------------------------------|
B|--------------------------------------------7-----------7---------------|
G|--------------------------------------7------------7----------7---------|
D|---------------------------------7h9-----9------9-----9---7h9----9------|
A|------------------------------------------------------------------------|
E|------------------------------------------------------------------------|
Tap to rate this tab
# A B C D E F G H I J K L M N O P Q R S T U V W X Y Z