Song name
# A B C D E F G H I J K L M N O P Q R S T U V W X Y Z

Julian Smith - Jellyfish tab

Julian Pretty Much Plays this whole song with one riff.

*NOTE*
Julian Plays this with his thumb playing the notes on the E string And his index finger 
the notes on the A string [No Pick is Used]

but there is just one little thing at the beginning that is different.

e----------------------------------------------------------------------------|
B----------------------------------------------------------------------------|
G----------------------------------------------------------------------------|
D----------------------------------------------------------------------------|
A----------------------------------------------------------------------------|
E----8-8----8----8-8----8----------------------------------------------------|


But then you play this for the whole song.

e----------------------------------------------------------------------------|
B----------------------------------------------------------------------------|
G----------------------------------------------------------------------------|
D----------------------------------------------------------------------------|
A-------10----10-----------10------------------------------------------------|
E-8-8----------------8-------------------------------------------------------|

you play that 3 times but when you get to the fourth time you play this

e----------------------------------------------------------------------------|
B----------------------------------------------------------------------------|
G----------------------------------------------------------------------------|
D----------------------------------------------------------------------------|
A----------8----8----------8-------------------------------------------------|
E--10-10-------------10------------------------------------------------------|

And You Just Keep playing that for the rest of the song.

tabbed By: Andrew Utz
///
http://ANDREWUTZ.tk
///
http://twitter.com/andyutz
http://youtube.com/allaboutandrew
///

Song By: Julian Smith
http://JulianSmith.tv
Tap to rate this tab
 
# A B C D E F G H I J K L M N O P Q R S T U V W X Y Z