Julian Smith - Jellyfish tab

There was already a tab for this song on here but it wasn't right. So i Fixed it. 
This is my first tab so, bare with me.

If you play this one riff about three or four times it should come pretty close. 

enjoy, 

e-------------|--------------|--------------|--------------|------------|-
B-------------|--------------|--------------|--------------|------------|-
G-------------|--------------|--------------|--------------|------------|-
D-------------|--------------|--------------|--------------|------------|-
A-------------|----10-10--10-|----10-10--10-|----10-10--10-|-----8-8--8-|-
E-8-8-8--8-8-8|8-8------8----|8-8------8----|11-11-----11--|10-10---10--|-

continues...
e-----------|-------------|----------------|------------|-------------|
B-----------|-------------|----------------|------------|-------------|
G-----------|-------------|----------------|------------|-------------|
D-----------|-------------|----------------|------------|-------------|
A----10-10--|----10-10--10|-----10-10--10--|------8-8--8|----10-10--10|
E-8-8-----8-|-8-8-----8---|11-11-----11----|-10-10---10-|-8-8-----8---|


There are some short pauses in the song with a bending string but i'm not quite sure what it is.


Tabbed by; Boobis Black
Song by; Julian Smith
Tap to rate this tab
 
# A B C D E F G H I J K L M N O P Q R S T U V W X Y Z