Julian Smith - Jellyfish tab

-------------------------------------------------------------------------------
			     JELLYFISH - Julian Smith
-------------------------------------------------------------------------------
Tabbed by: Kaitlynr94@aol.com

Tuning: Standard

This tab can also be played on bass because it only uses E and A!
Don't let any notes ring except the 6 where it says 'slight bend.'

PART A (x 2)
e|-------------------------------------|
B|-------------------------------------|
G|-------------------------------------|
D|-------------------------------------|
A|-------------------------------------|
E|---8-8-8--8--8-8---------------------|


e|-------------------------------------|
B|-------------------------------------|
G|-------------------------------------|
D|-------------------------------------|
A|--------10-10------10----------------|
E|---8-8----------8--------------------|


e|-------------------------------------|
B|-------------------------------------|
G|-------------------------------------|
D|-------------------------------------|
A|--------10-10------10----------------|
E|---8-8----------8--------------------|


e|-------------------------------------|
B|-------------------------------------|
G|-------------------------------------|
D|-------------------------------------|
A|---6-6--10-10---6--10----------------|
E|-------------------------------------|


e|-------------------------------------|
B|-------------------------------------|
G|-------------------------------------|
D|-------------------------------------|
A|---5-5---8--8---5--8-----------------|
E|-------------------------------------|

PART B
e|-------------------------------------|
B|-------------------------------------|
G|-------------------------------------|
D|-------------------------------------|
A|-------------------------------------|
E|---8-8-------------------------------|


e|-------------------------------------|
B|-------------------------------------|
G|-------------------------------------|
D|-------------------------------------|
A|---------------6---------------------|
E|---8-8-------------------------------|
                 ^ slight bend

e|-------------------------------------|
B|-------------------------------------|
G|-------------------------------------|
D|-------------------------------------|
A|-------------------------------------|
E|---8-8-------------------------------|

(PART A) (x 3, but skip the last 5-5---8--8---5--8)
Tap to rate this tab
 
# A B C D E F G H I J K L M N O P Q R S T U V W X Y Z