Song name
# A B C D E F G H I J K L M N O P Q R S T U V W X Y Z

Julian Smith - Jellyfish tab

Jellyfish By Julian Smith
Standard Tuning
Tabbed by BallsMcfly

Here is the actual and most correct tab of this song.
I saw a lot of tabs that either incomplete or weren't correct.
This tab here covers the whole song.

It's quite simple.
The most challenging thing would have to be the fingerpicking, but if you know how it 
be easy enough for you.
Use your thumb to pick the sixth string and your index finger to pick the fifth string.
If you do not know how to fingerpick, obviously use a pick, really doesn't matter.
As for the rhythm; listen to the song.


^= SLIGHT BEND

INTRO:
---------------------|
---------------------|
---------------------|
---------------------|
---------------------|
--8-8--8--8--8-8-----|

CHORUS:
------------------|-----------------|--------------------|-----------------|
------------------|-----------------|--------------------|-----------------|
------------------|-----------------|--------------------|-----------------|
------------------|-----------------|--------------------|-----------------|
-----10--10----10-|-----10--10---10-|-------10--10----10-|-------8--8----8-|
-8-8--------8-----|-8-8--------8----|-11-11--------11----|-10-10------10---|

VERSE 1:
------------------------------------------------------------------|
------------------------------------------------------------------|
------------------------------------------------------------------|
------------------------------------------------------------------|
-------------------------------6^---------------------------------|
--8-8--------------8-8--------------8-8--------------8-8----------|


CHORUS 2: X2
------------------|-----------------|--------------------|-----------------|
------------------|-----------------|--------------------|-----------------|
------------------|-----------------|--------------------|-----------------|
------------------|-----------------|--------------------|-----------------|
-----10--10----10-|-----10--10---10-|-------10--10----10-|-------8--8----8-|
-8-8--------8-----|-8-8--------8----|-11-11--------11----|-10-10------10---|

VERSE 2:
------------------------------------------------------------------|
------------------------------------------------------------------|
------------------------------------------------------------------|
------------------------------------------------------------------|
-------------------------------6^---------------------------------|
--8-8--------------8-8--------------8-8--------------8-8----------|

CHORUS 3: X2
------------------|-----------------|--------------------|-----------------|
------------------|-----------------|--------------------|-----------------|
------------------|-----------------|--------------------|-----------------|
------------------|-----------------|--------------------|-----------------|
-----10--10----10-|-----10--10---10-|-------10--10----10-|-------8--8----8-|
-8-8--------8-----|-8-8--------8----|-11-11--------11----|-10-10------10---|

OUTRO:

------------------|-----------------|--------------------|
------------------|-----------------|--------------------|
------------------|-----------------|--------------------|
------------------|-----------------|--------------------|
-----10--10----10-|-----10--10---10-|-------10--10----10-|
-8-8--------8-----|-8-8--------8----|-11-11--------11----|
Tap to rate this tab
 
# A B C D E F G H I J K L M N O P Q R S T U V W X Y Z