Julian Smith - Stuck Inside Your Head tab

I tabbed this for you. It's really simple but why not.

Fig. 1
 Am
e---------------------------------------------------|
B---------------------------------------------------|
G---------------------------------------------------|
D----2-------------------------2--------------------|
A-0-----2----3----3--3p2p0--0-----2----3------------|
E---------------------------------------------------|

Fig. 2
Dm
e---------------------------------------------------|
B---------------------------------------------------|
G----2-------------------------2--------------------|
D-0-----2----3----3--3p2p0--0-----2----3------------|
A---------------------------------------------------|
E---------------------------------------------------|

Fig. 3
 Am                         Emsus4
e------------------------------------0~~~~~~~~~~~~-|
B---------------------------------0~~~~~~~~~~~~~~~-|
G------------------------------1~~~~~~~~~~~~~~~~~~-|
D----2---------------------------------------------|
A-0-----2----3----3--3p2p0-------------------------|
E---------------------------0~~~~~~~~~~~~~~~~~~~~~-|

For the chorus play
Fig. 1 X2
Fig. 2
Fig. 3

For the verse play

 Am
e---------------------------------------------------|
B---------------------------------------------------|
G---------------------------------------------------|
D---------------------------------------------------|
A-0------------0---0---------0---0------------------|
E---------------------------------------------------|
or something similar to that.

Well that's all there is to it.
Tap to rate this tab
 
# A B C D E F G H I J K L M N O P Q R S T U V W X Y Z