Song name
# A B C D E F G H I J K L M N O P Q R S T U V W X Y Z

Julian Smith - Stuck Inside Your Head tab

-------------------------------------------------------------------------------
			     Stuck inside your head- Julian Smith
-------------------------------------------------------------------------------
Tabbed by:Bodomdayz
Email:bodomdayz@hotmail.com

Tuning:E (standard) 
(Chorus)
e|---------------------------------------------------------------------------|
B|---------------------------------------------------------------------------|
G|---------------------------------------------------------------------------|
D|---------------------------------------------------------------------------| (2X)
A|----7---3-3--3-2-0-------7----3--------------------------------------------|
E|--5---7----------------5---7-----------------------------------------------|

e|---------------------------------------------------------------------------|
B|---------------------------------------------------------------------------|
G|---------------------------------------------------------------------------|
D|----7---3-3--3-2-0-----7----3----------------------------------------------|
A|--5---7-------------5----7-------------------------------------------------|
E|---------------------------------------------------------------------------|

e|---------------------------------------------------------------------------|
B|---------------------------------------------------------------------------|
G|------------------------------4~-------------------------------------------|
D|------------------------------2~-------------------------------------------|
A|----7---3-3--3-2-0----2--3-------------------------------------------------|
E|--5---5--------------------------------------------------------------------|
(Verse)
e|---------------------------------------------------------------------------|
B|---------------------------------------------------------------------------|
G|---------------------------------------------------------------------------|
D|---------------------------------------------------------------------------|
A|---------------------------------------------------------------------------|
E|-5----5----5----55-----5-----5-----5-----55-----5----5-----5-----5---------|

e|---------------------------------------------------------------------------|
B|---------------------------------------------------------------------------|
G|---------------------------------------------------------------------------|
D|---------------------------------------------------------------------------|
A|---------------------------------------------------------------------------|
E|--5------5------5----------------------------------------------------------|
Chorus (1X)	
Verse (1X)
Chorus (1X)
Verse (1X)
Chorus (2X)
End on A (5th fret, 6th string)
e|---------------------------------------------------------------------------|
B|---------------------------------------------------------------------------|
G|---------------------------------------------------------------------------|
D|---------------------------------------------------------------------------|
A|---------------------------------------------------------------------------|
E|-5-------------------------------------------------------------------------|


************************************

| /   slide up
| \   slide down
| h   hammer-on
| p   pull-off
| ~   vibrato
| +   harmonic
| x   Mute note
| b   Bend
| pb  Pre-bend
| br  Bend release
| pbr Pre-bend release
| brb Bend release bend

************************************
Tap to rate this tab
 
# A B C D E F G H I J K L M N O P Q R S T U V W X Y Z