Song name
# A B C D E F G H I J K L M N O P Q R S T U V W X Y Z

Julian Smith - Stuck Inside Your Head tab

it goes like...

(Chorus)
          #1#              #2#            #3#              #4#
E/--------------------|----------|--------------------|----------|-------
B/--------------------|----------|--------------------|----------|-------
G/--------------------|----------|--------------------|----------|-------
D/----2---------------|--2-------|----2---------------|--2-------|-------
A/--0---2--3--3-3p2p0-|-0---2--3-|--0---2--3--3-3p2p0-|-0---2--3-|-------
E/--------------------|----------|--------------------|----------|-------
         #5#               #6#            #7#              #8#
E/--------------------|----------|--------------------|------0h--|-------
B/--------------------|----------|--------------------|----3-----|-------
G/----2---------------|--2-------|--------------------|--1-------|-------
D/--0---2--3--3-3p2p0-|-0---2--3-|----2---------------|----------|-------
A/--------------------|----------|--0---2--3--3-3p2p0-|----------|-------
E/--------------------|----------|--------------------|-0--------|-------
 
 Am    (Strum periodically) 
When, a song, is stuck inside your head,

 Am                                            Em
Sing, this song, just sing this song instead. Again now,

 Am
When, a song, is stuck inside your head,

 Am                                              Em
Sing, this song, just sing this song instead. It goes like,

(Chorus)

Just do that for every verse, and your good!

When you done, don't forget to drink some hot kool-aid and malk.
Tap to rate this tab
 
# A B C D E F G H I J K L M N O P Q R S T U V W X Y Z